  0
SECTION
  2
HEADER
  9
$ACADVER
  1
AC1015
  9
$ACADMAINTVER
 70
     6
  9
$DWGCODEPAGE
  3
ANSI_1252
  9
$INSBASE
 10
0.0
 20
0.0
 30
0.0
  9
$EXTMIN
 10
-279.2
 20
-9.5
 30
0.0
  9
$EXTMAX
 10
279.2
 20
600.0
 30
0.0
  9
$LIMMIN
 10
0.0
 20
0.0
  9
$LIMMAX
 10
420.0
 20
297.0
  9
$ORTHOMODE
 70
     0
  9
$REGENMODE
 70
     1
  9
$FILLMODE
 70
     1
  9
$QTEXTMODE
 70
     0
  9
$MIRRTEXT
 70
     1
  9
$LTSCALE
 40
1.0
  9
$ATTMODE
 70
     1
  9
$TEXTSIZE
 40
3.5
  9
$TRACEWID
 40
1.0
  9
$TEXTSTYLE
  7
Standard
  9
$CLAYER
  8
0
  9
$CELTYPE
  6
ByLayer
  9
$CECOLOR
 62
   256
  9
$CELTSCALE
 40
1.0
  9
$DISPSILH
 70
     0
  9
$DIMSCALE
 40
1.0
  9
$DIMASZ
 40
3.302
  9
$DIMEXO
 40
1.0
  9
$DIMDLI
 40
3.75
  9
$DIMRND
 40
0.0
  9
$DIMDLE
 40
0.0
  9
$DIMEXE
 40
1.0
  9
$DIMTP
 40
0.0
  9
$DIMTM
 40
0.0
  9
$DIMTXT
 40
3.5
  9
$DIMCEN
 40
2.5
  9
$DIMTSZ
 40
0.0
  9
$DIMTOL
 70
     0
  9
$DIMLIM
 70
     0
  9
$DIMTIH
 70
     1
  9
$DIMTOH
 70
     1
  9
$DIMSE1
 70
     0
  9
$DIMSE2
 70
     0
  9
$DIMTAD
 70
     1
  9
$DIMZIN
 70
     1
  9
$DIMBLK
  1

  9
$DIMASO
 70
     1
  9
$DIMSHO
 70
     1
  9
$DIMPOST
  1

  9
$DIMAPOST
  1

  9
$DIMALT
 70
     0
  9
$DIMALTD
 70
     3
  9
$DIMALTF
 40
0.0393700787
  9
$DIMLFAC
 40
1.0
  9
$DIMTOFL
 70
     1
  9
$DIMTVP
 40
0.0
  9
$DIMTIX
 70
     0
  9
$DIMSOXD
 70
     0
  9
$DIMSAH
 70
     0
  9
$DIMBLK1
  1

  9
$DIMBLK2
  1

  9
$DIMSTYLE
  2
ISO-25
  9
$DIMCLRD
 70
     0
  9
$DIMCLRE
 70
     0
  9
$DIMCLRT
 70
     0
  9
$DIMTFAC
 40
1.0
  9
$DIMGAP
 40
1.524
  9
$DIMJUST
 70
     0
  9
$DIMSD1
 70
     0
  9
$DIMSD2
 70
     0
  9
$DIMTOLJ
 70
     0
  9
$DIMTZIN
 70
     1
  9
$DIMALTZ
 70
     0
  9
$DIMALTTZ
 70
     0
  9
$DIMUPT
 70
     0
  9
$DIMDEC
 70
     2
  9
$DIMTDEC
 70
     2
  9
$DIMALTU
 70
     2
  9
$DIMALTTD
 70
     3
  9
$DIMTXSTY
  7
Standard
  9
$DIMAUNIT
 70
     0
  9
$DIMADEC
 70
     2
  9
$DIMALTRND
 40
0.0
  9
$DIMAZIN
 70
     0
  9
$DIMDSEP
 70
    44
  9
$DIMATFIT
 70
     3
  9
$DIMFRAC
 70
     0
  9
$DIMLDRBLK
  1

  9
$DIMLUNIT
 70
     2
  9
$DIMLWD
 70
    -2
  9
$DIMLWE
 70
    -2
  9
$DIMTMOVE
 70
     0
  9
$LUNITS
 70
     2
  9
$LUPREC
 70
     2
  9
$SKETCHINC
 40
1.0
  9
$FILLETRAD
 40
10.0
  9
$AUNITS
 70
     0
  9
$AUPREC
 70
     2
  9
$MENU
  1
.
  9
$ELEVATION
 40
0.0
  9
$PELEVATION
 40
0.0
  9
$THICKNESS
 40
0.0
  9
$LIMCHECK
 70
     0
  9
$CHAMFERA
 40
0.0
  9
$CHAMFERB
 40
0.0
  9
$CHAMFERC
 40
0.0
  9
$CHAMFERD
 40
0.0
  9
$SKPOLY
 70
     0
  9
$TDCREATE
 40
2459257.611068125
  9
$TDUCREATE
 40
2459257.611068125
  9
$TDUPDATE
 40
2459257.611114213
  9
$TDUUPDATE
 40
2459257.611114213
  9
$TDINDWG
 40
0.0000000116
  9
$TDUSRTIMER
 40
0.0000000116
  9
$USRTIMER
 70
     1
  9
$ANGBASE
 50
0.0
  9
$ANGDIR
 70
     0
  9
$PDMODE
 70
     0
  9
$PDSIZE
 40
-1.0
  9
$PLINEWID
 40
0.0
  9
$SPLFRAME
 70
     0
  9
$SPLINETYPE
 70
     6
  9
$SPLINESEGS
 70
     8
  9
$HANDSEED
  5
48F
  9
$SURFTAB1
 70
     6
  9
$SURFTAB2
 70
     6
  9
$SURFTYPE
 70
     6
  9
$SURFU
 70
     6
  9
$SURFV
 70
     6
  9
$UCSBASE
  2

  9
$UCSNAME
  2

  9
$UCSORG
 10
0.0
 20
0.0
 30
0.0
  9
$UCSXDIR
 10
1.0
 20
0.0
 30
0.0
  9
$UCSYDIR
 10
0.0
 20
1.0
 30
0.0
  9
$UCSORTHOREF
  2

  9
$UCSORTHOVIEW
 70
     0
  9
$UCSORGTOP
 10
0.0
 20
0.0
 30
0.0
  9
$UCSORGBOTTOM
 10
0.0
 20
0.0
 30
0.0
  9
$UCSORGLEFT
 10
0.0
 20
0.0
 30
0.0
  9
$UCSORGRIGHT
 10
0.0
 20
0.0
 30
0.0
  9
$UCSORGFRONT
 10
0.0
 20
0.0
 30
0.0
  9
$UCSORGBACK
 10
0.0
 20
0.0
 30
0.0
  9
$PUCSBASE
  2

  9
$PUCSNAME
  2

  9
$PUCSORG
 10
0.0
 20
0.0
 30
0.0
  9
$PUCSXDIR
 10
1.0
 20
0.0
 30
0.0
  9
$PUCSYDIR
 10
0.0
 20
1.0
 30
0.0
  9
$PUCSORTHOREF
  2

  9
$PUCSORTHOVIEW
 70
     0
  9
$PUCSORGTOP
 10
0.0
 20
0.0
 30
0.0
  9
$PUCSORGBOTTOM
 10
0.0
 20
0.0
 30
0.0
  9
$PUCSORGLEFT
 10
0.0
 20
0.0
 30
0.0
  9
$PUCSORGRIGHT
 10
0.0
 20
0.0
 30
0.0
  9
$PUCSORGFRONT
 10
0.0
 20
0.0
 30
0.0
  9
$PUCSORGBACK
 10
0.0
 20
0.0
 30
0.0
  9
$USERI1
 70
     0
  9
$USERI2
 70
     0
  9
$USERI3
 70
     0
  9
$USERI4
 70
     0
  9
$USERI5
 70
     0
  9
$USERR1
 40
0.0
  9
$USERR2
 40
0.0
  9
$USERR3
 40
0.0
  9
$USERR4
 40
0.0
  9
$USERR5
 40
0.0
  9
$WORLDVIEW
 70
     1
  9
$SHADEDGE
 70
     3
  9
$SHADEDIF
 70
    70
  9
$TILEMODE
 70
     1
  9
$MAXACTVP
 70
    64
  9
$PINSBASE
 10
0.0
 20
0.0
 30
0.0
  9
$PLIMCHECK
 70
     0
  9
$PEXTMIN
 10
-279.2
 20
-9.5
 30
0.0
  9
$PEXTMAX
 10
279.2
 20
600.0
 30
0.0
  9
$PLIMMIN
 10
-341.7128205128
 20
-32.9423076923
  9
$PLIMMAX
 10
586.6025641026
 20
623.4423076923
  9
$UNITMODE
 70
     0
  9
$VISRETAIN
 70
     1
  9
$PLINEGEN
 70
     0
  9
$PSLTSCALE
 70
     1
  9
$TREEDEPTH
 70
  3020
  9
$CMLSTYLE
  2
Standard
  9
$CMLJUST
 70
     0
  9
$CMLSCALE
 40
20.0
  9
$PROXYGRAPHICS
 70
     1
  9
$MEASUREMENT
 70
     1
  9
$CELWEIGHT
370
    -1
  9
$ENDCAPS
280
     0
  9
$JOINSTYLE
280
     0
  9
$LWDISPLAY
290
     1
  9
$INSUNITS
 70
     4
  9
$HYPERLINKBASE
  1

  9
$STYLESHEET
  1

  9
$XEDIT
290
     1
  9
$CEPSNTYPE
380
     0
  9
$PSTYLEMODE
290
     1
  9
$FINGERPRINTGUID
  2
{0ca8c2e8-18ea-4d20-8ea8-396e1fa44294}
  9
$VERSIONGUID
  2
{FAEB1C32-E019-11D5-929B-00C0DF256EC4}
  9
$EXTNAMES
290
     1
  9
$PSVPSCALE
 40
0.0
  9
$OLESTARTUP
290
     0
  0
ENDSEC
  0
SECTION
  2
CLASSES
  0
CLASS
  1
ACDBDICTIONARYWDFLT
  2
AcDbDictionaryWithDefault
  3
ObjectDBX Classes
 90
        0
280
     0
281
     0
  0
CLASS
  1
VISUALSTYLE
  2
AcDbVisualStyle
  3
ObjectDBX Classes
 90
     4095
280
     0
281
     0
  0
CLASS
  1
MATERIAL
  2
AcDbMaterial
  3
ObjectDBX Classes
 90
     1153
280
     0
281
     0
  0
CLASS
  1
SCALE
  2
AcDbScale
  3
ObjectDBX Classes
 90
     1153
280
     0
281
     0
  0
CLASS
  1
TABLESTYLE
  2
AcDbTableStyle
  3
ObjectDBX Classes
 90
     4095
280
     0
281
     0
  0
CLASS
  1
MLEADERSTYLE
  2
AcDbMLeaderStyle
  3
ACDB_MLEADERSTYLE_CLASS
 90
     4095
280
     0
281
     0
  0
CLASS
  1
SUN
  2
AcDbSun
  3
SCENEOE
 90
     1153
280
     0
281
     0
  0
CLASS
  1
ACDBPLACEHOLDER
  2
AcDbPlaceHolder
  3
ObjectDBX Classes
 90
        0
280
     0
281
     0
  0
CLASS
  1
LAYOUT
  2
AcDbLayout
  3
ObjectDBX Classes
 90
        0
280
     0
281
     0
  0
ENDSEC
  0
SECTION
  2
TABLES
  0
TABLE
  2
VPORT
  5
8
330
0
100
AcDbSymbolTable
 70
     1
  0
VPORT
  5
29
330
8
100
AcDbSymbolTableRecord
100
AcDbViewportTableRecord
  2
*Active
 70
     0
 10
0.0
 20
0.0
 11
1.0
 21
1.0
 12
0.0
 22
295.25
 13
0.0
 23
0.0
 14
10.0
 24
10.0
 15
10.0
 25
10.0
 16
0.0
 26
0.0
 36
1.0
 17
0.0
 27
0.0
 37
0.0
 40
621.69
 41
0.9161607875
 42
50.0
 43
0.0
 44
0.0
 50
0.0
 51
0.0
 71
     0
 72
   100
 73
     1
 74
     3
 75
     0
 76
     0
 77
     0
 78
     0
281
     0
 65
     1
110
0.0
120
0.0
130
0.0
111
1.0
121
0.0
131
0.0
112
0.0
122
1.0
132
0.0
 79
     0
146
0.0
  0
ENDTAB
  0
TABLE
  2
LTYPE
  5
5
330
0
100
AcDbSymbolTable
 70
     6
  0
LTYPE
  5
14
330
5
100
AcDbSymbolTableRecord
100
AcDbLinetypeTableRecord
  2
ByBlock
 70
     0
  3

 72
    65
 73
     0
 40
0.0
  0
LTYPE
  5
15
330
5
100
AcDbSymbolTableRecord
100
AcDbLinetypeTableRecord
  2
ByLayer
 70
     0
  3

 72
    65
 73
     0
 40
0.0
  0
LTYPE
  5
16
330
5
100
AcDbSymbolTableRecord
100
AcDbLinetypeTableRecord
  2
Continuous
 70
     0
  3
Solid line
 72
    65
 73
     0
 40
0.0
  0
LTYPE
  5
6E
330
5
100
AcDbSymbolTableRecord
100
AcDbLinetypeTableRecord
  2
HIDDEN
 70
     0
  3
Hidden __ __ __ __ __ __ __ __ __ __ __ __ __ __
 72
    65
 73
     2
 40
1.905
 49
1.27
 74
     0
 49
-0.635
 74
     0
  0
LTYPE
  5
6F
330
5
100
AcDbSymbolTableRecord
100
AcDbLinetypeTableRecord
  2
PHANTOM
 70
     0
  3
Phantom ______  __  __  ______  __  __  ______
 72
    65
 73
     6
 40
12.7
 49
6.35
 74
     0
 49
-1.27
 74
     0
 49
1.27
 74
     0
 49
-1.27
 74
     0
 49
1.27
 74
     0
 49
-1.27
 74
     0
  0
LTYPE
  5
70
330
5
100
AcDbSymbolTableRecord
100
AcDbLinetypeTableRecord
  2
CENTER
 70
     0
  3
Center ____ _ ____ _ ____ _ ____ _ ____ _ ____
 72
    65
 73
     4
 40
10.16
 49
6.35
 74
     0
 49
-1.27
 74
     0
 49
1.27
 74
     0
 49
-1.27
 74
     0
  0
LTYPE
  5
71
330
5
100
AcDbSymbolTableRecord
100
AcDbLinetypeTableRecord
  2
CENTERX2
 70
     0
  3
Center (2x) ________  __  ________  __  _____
 72
    65
 73
     4
 40
20.32
 49
12.7
 74
     0
 49
-2.54
 74
     0
 49
2.54
 74
     0
 49
-2.54
 74
     0
  0
LTYPE
  5
72
330
5
100
AcDbSymbolTableRecord
100
AcDbLinetypeTableRecord
  2
DOT2
 70
     0
  3
Dot (.5x) ........................................
 72
    65
 73
     2
 40
0.635
 49
0.0
 74
     0
 49
-0.635
 74
     0
  0
ENDTAB
  0
TABLE
  2
LAYER
  5
2
330
0
100
AcDbSymbolTable
 70
     1
  0
LAYER
  5
10
330
2
100
AcDbSymbolTableRecord
100
AcDbLayerTableRecord
  2
0
 70
     0
 62
     7
  6
Continuous
370
    -3
390
F
  0
ENDTAB
  0
TABLE
  2
STYLE
  5
3
330
0
100
AcDbSymbolTable
 70
     1
  0
STYLE
  5
11
330
3
100
AcDbSymbolTableRecord
100
AcDbTextStyleTableRecord
  2
Standard
 70
     0
 40
0.0
 41
1.0
 50
0.0
 71
     0
 42
3.5
  3
txt
  4

  0
ENDTAB
  0
TABLE
  2
VIEW
  5
6
330
0
100
AcDbSymbolTable
 70
     0
  0
ENDTAB
  0
TABLE
  2
UCS
  5
7
330
0
100
AcDbSymbolTable
 70
     0
  0
ENDTAB
  0
TABLE
  2
APPID
  5
9
330
0
100
AcDbSymbolTable
 70
     1
  0
APPID
  5
12
330
9
100
AcDbSymbolTableRecord
100
AcDbRegAppTableRecord
  2
ACAD
 70
     0
  0
ENDTAB
  0
TABLE
  2
DIMSTYLE
  5
A
330
0
100
AcDbSymbolTable
 70
     1
100
AcDbDimStyleTable
  0
DIMSTYLE
105
27
330
A
100
AcDbSymbolTableRecord
100
AcDbDimStyleTableRecord
  2
ISO-25
 70
     0
 41
2.5
 42
0.625
 43
3.75
 44
1.25
 73
     0
 74
     0
 77
     1
 78
     8
140
2.5
141
2.5
143
0.0393700787
147
0.625
171
     3
172
     1
178
     0
271
     2
272
     2
274
     3
278
    44
283
     0
284
     8
340
11
  0
ENDTAB
  0
TABLE
  2
BLOCK_RECORD
  5
1
330
0
100
AcDbSymbolTable
 70
     3
  0
BLOCK_RECORD
  5
1F
330
1
100
AcDbSymbolTableRecord
100
AcDbBlockTableRecord
  2
*Model_Space
340
22
  0
BLOCK_RECORD
  5
1B
330
1
100
AcDbSymbolTableRecord
100
AcDbBlockTableRecord
  2
*Paper_Space
340
1E
  0
BLOCK_RECORD
  5
23
330
1
100
AcDbSymbolTableRecord
100
AcDbBlockTableRecord
  2
*Paper_Space0
340
26
  0
BLOCK_RECORD
  5
211
330
1
100
AcDbSymbolTableRecord
100
AcDbBlockTableRecord
  2
*Paper_Space1
340
212
  0
BLOCK_RECORD
  5
2F5
330
1
100
AcDbSymbolTableRecord
100
AcDbBlockTableRecord
  2
*Paper_Space2
340
2F6
  0
ENDTAB
  0
ENDSEC
  0
SECTION
  2
BLOCKS
  0
BLOCK
  5
20
330
1F
100
AcDbEntity
  8
0
100
AcDbBlockBegin
  2
*Model_Space
 70
     0
 10
0.0
 20
0.0
 30
0.0
  3
*Model_Space
  1

  0
ENDBLK
  5
21
330
1F
100
AcDbEntity
  8
0
100
AcDbBlockEnd
  0
BLOCK
  5
1C
330
1B
100
AcDbEntity
 67
     1
  8
0
100
AcDbBlockBegin
  2
*Paper_Space
 70
     0
 10
0.0
 20
0.0
 30
0.0
  3
*Paper_Space
  1

  0
ENDBLK
  5
1D
330
1B
100
AcDbEntity
 67
     1
  8
0
100
AcDbBlockEnd
  0
BLOCK
  5
24
330
23
100
AcDbEntity
  8
0
100
AcDbBlockBegin
  2
*Paper_Space0
 70
     0
 10
0.0
 20
0.0
 30
0.0
  3
*Paper_Space0
  1

  0
LINE
  5
1FC
330
23
100
AcDbEntity
  8
0
  6
Continuous
 62
     7
370
    25
100
AcDbLine
 10
169.25
 20
-9.5
 30
0.0
 11
169.25
 21
0.0
 31
0.0
  0
LINE
  5
1FD
330
23
100
AcDbEntity
  8
0
  6
Continuous
 62
     7
370
    25
100
AcDbLine
 10
158.75
 20
0.0
 30
0.0
 11
158.75
 21
-9.5
 31
0.0
  0
LINE
  5
1FE
330
23
100
AcDbEntity
  8
0
  6
Continuous
 62
     7
370
    25
100
AcDbLine
 10
-140.55
 20
-9.5
 30
0.0
 11
-140.55
 21
0.0
 31
0.0
  0
LINE
  5
1FF
330
23
100
AcDbEntity
  8
0
  6
Continuous
 62
     7
370
    25
100
AcDbLine
 10
-151.05
 20
0.0
 30
0.0
 11
-151.05
 21
-9.5
 31
0.0
  0
LINE
  5
200
330
23
100
AcDbEntity
  8
0
  6
Continuous
 62
     7
370
    25
100
AcDbLine
 10
202.2
 20
506.3
 30
0.0
 11
202.2
 21
261.3
 31
0.0
  0
LINE
  5
201
330
23
100
AcDbEntity
  8
0
  6
Continuous
 62
     7
370
    25
100
AcDbLine
 10
202.2
 20
261.3
 30
0.0
 11
184.0
 21
261.3
 31
0.0
  0
LINE
  5
202
330
23
100
AcDbEntity
  8
0
  6
Continuous
 62
     7
370
    25
100
AcDbLine
 10
192.2
 20
261.3
 30
0.0
 11
192.2
 21
506.3
 31
0.0
  0
LINE
  5
203
330
23
100
AcDbEntity
  8
0
  6
Continuous
 62
     7
370
    25
100
AcDbLine
 10
184.0
 20
506.3
 30
0.0
 11
202.2
 21
506.3
 31
0.0
  0
LINE
  5
204
330
23
100
AcDbEntity
  8
0
  6
Continuous
 62
     7
370
    25
100
AcDbLine
 10
202.2
 20
0.0
 30
0.0
 11
-228.0
 21
0.0
 31
0.0
  0
LINE
  5
205
330
23
100
AcDbEntity
  8
0
  6
Continuous
 62
     7
370
    25
100
AcDbLine
 10
-228.0
 20
0.0
 30
0.0
 11
-228.0
 21
600.0
 31
0.0
  0
LINE
  5
206
330
23
100
AcDbEntity
  8
0
  6
Continuous
 62
     7
370
    25
100
AcDbLine
 10
-228.0
 20
600.0
 30
0.0
 11
184.0
 21
600.0
 31
0.0
  0
LINE
  5
207
330
23
100
AcDbEntity
  8
0
  6
Continuous
 62
     7
370
    25
100
AcDbLine
 10
184.0
 20
600.0
 30
0.0
 11
184.0
 21
0.0
 31
0.0
  0
LINE
  5
208
330
23
100
AcDbEntity
  8
0
  6
Continuous
 62
     7
370
    25
100
AcDbLine
 10
158.75
 20
-9.5
 30
0.0
 11
169.25
 21
-9.5
 31
0.0
  0
LINE
  5
209
330
23
100
AcDbEntity
  8
0
  6
Continuous
 62
     7
370
    25
100
AcDbLine
 10
184.0
 20
245.0
 30
0.0
 11
202.2
 21
245.0
 31
0.0
  0
LINE
  5
20A
330
23
100
AcDbEntity
  8
0
  6
Continuous
 62
     7
370
    25
100
AcDbLine
 10
192.2
 20
0.0
 30
0.0
 11
192.2
 21
245.0
 31
0.0
  0
LINE
  5
20B
330
23
100
AcDbEntity
  8
0
  6
Continuous
 62
     7
370
    25
100
AcDbLine
 10
202.2
 20
245.0
 30
0.0
 11
202.2
 21
0.0
 31
0.0
  0
LINE
  5
20C
330
23
100
AcDbEntity
  8
0
  6
Continuous
 62
     7
370
    25
100
AcDbLine
 10
184.0
 20
595.3
 30
0.0
 11
202.5
 21
595.3
 31
0.0
  0
LINE
  5
20D
330
23
100
AcDbEntity
  8
0
  6
Continuous
 62
     7
370
    25
100
AcDbLine
 10
192.5
 20
518.3
 30
0.0
 11
192.5
 21
595.3
 31
0.0
  0
LINE
  5
20E
330
23
100
AcDbEntity
  8
0
  6
Continuous
 62
     7
370
    25
100
AcDbLine
 10
202.5
 20
518.3
 30
0.0
 11
184.0
 21
518.3
 31
0.0
  0
LINE
  5
20F
330
23
100
AcDbEntity
  8
0
  6
Continuous
 62
     7
370
    25
100
AcDbLine
 10
202.5
 20
595.3
 30
0.0
 11
202.5
 21
518.3
 31
0.0
  0
LINE
  5
210
330
23
100
AcDbEntity
  8
0
  6
Continuous
 62
     7
370
    25
100
AcDbLine
 10
-151.05
 20
-9.5
 30
0.0
 11
-140.55
 21
-9.5
 31
0.0
  0
VIEWPORT
  5
489
330
23
100
AcDbEntity
  8
0
100
AcDbViewport
 10
0.0
 20
0.0
 30
0.0
 40
205.6
 41
156.0
 68
     1
 69
     1
 12
0.0
 22
295.25
 13
0.0
 23
0.0
 14
10.0
 24
10.0
 15
10.0
 25
10.0
 16
0.0
 26
0.0
 36
1.0
 17
0.0
 27
0.0
 37
0.0
 42
50.0
 43
0.0
 44
0.0
 45
621.69
 50
0.0
 51
0.0
 72
   100
 90
   557152
  1

281
     0
 71
     1
 74
     0
110
0.0
120
0.0
130
0.0
111
1.0
121
0.0
131
0.0
112
0.0
122
1.0
132
0.0
 79
     0
146
0.0
  0
ENDBLK
  5
25
330
23
100
AcDbEntity
  8
0
100
AcDbBlockEnd
  0
BLOCK
  5
213
330
211
100
AcDbEntity
  8
0
100
AcDbBlockBegin
  2
*Paper_Space1
 70
     0
 10
0.0
 20
0.0
 30
0.0
  3
*Paper_Space1
  1

  0
LINE
  5
292
330
211
100
AcDbEntity
  8
0
  6
Continuous
 62
     7
370
    25
100
AcDbLine
 10
-254.1
 20
190.75
 30
0.0
 11
-236.0
 21
190.75
 31
0.0
  0
LINE
  5
293
330
211
100
AcDbEntity
  8
0
  6
Continuous
 62
     7
370
    25
100
AcDbLine
 10
-236.0
 20
200.25
 30
0.0
 11
-254.1
 21
200.25
 31
0.0
  0
LINE
  5
294
330
211
100
AcDbEntity
  8
0
  6
Continuous
 62
     7
370
    25
100
AcDbLine
 10
254.1
 20
200.25
 30
0.0
 11
236.0
 21
200.25
 31
0.0
  0
LINE
  5
295
330
211
100
AcDbEntity
  8
0
  6
Continuous
 62
     7
370
    25
100
AcDbLine
 10
236.0
 20
190.75
 30
0.0
 11
254.1
 21
190.75
 31
0.0
  0
LINE
  5
296
330
211
100
AcDbEntity
  8
0
  6
Continuous
 62
     7
370
    25
100
AcDbLine
 10
78.0
 20
160.0
 30
0.0
 11
-78.0
 21
160.0
 31
0.0
  0
LINE
  5
297
330
211
100
AcDbEntity
  8
0
  6
Continuous
 62
     7
370
    25
100
AcDbLine
 10
78.0
 20
176.0
 30
0.0
 11
-78.0
 21
176.0
 31
0.0
  0
LINE
  5
298
330
211
100
AcDbEntity
  8
0
  6
Continuous
 62
     7
370
    25
100
AcDbLine
 10
-208.1
 20
226.1
 30
0.0
 11
-208.1
 21
228.0
 31
0.0
  0
LINE
  5
299
330
211
100
AcDbEntity
  8
0
  6
Continuous
 62
     7
370
    25
100
AcDbLine
 10
-208.1
 20
228.0
 30
0.0
 11
-256.0
 21
228.0
 31
0.0
  0
LINE
  5
29A
330
211
100
AcDbEntity
  8
0
  6
Continuous
 62
     7
370
    25
100
AcDbLine
 10
-254.1
 20
180.1
 30
0.0
 11
-254.1
 21
226.1
 31
0.0
  0
LINE
  5
29B
330
211
100
AcDbEntity
  8
0
  6
Continuous
 62
     7
370
    25
100
AcDbLine
 10
-256.0
 20
180.1
 30
0.0
 11
-254.1
 21
180.1
 31
0.0
  0
LINE
  5
29C
330
211
100
AcDbEntity
  8
0
  6
Continuous
 62
     7
370
    25
100
AcDbLine
 10
-208.1
 20
226.1
 30
0.0
 11
-254.1
 21
226.1
 31
0.0
  0
LINE
  5
29D
330
211
100
AcDbEntity
  8
0
  6
Continuous
 62
     7
370
    25
100
AcDbLine
 10
-228.5
 20
160.0
 30
0.0
 11
-228.5
 21
-165.8
 31
0.0
  0
LINE
  5
29E
330
211
100
AcDbEntity
  8
0
  6
Continuous
 62
     7
370
    25
100
AcDbLine
 10
80.0
 20
176.0
 30
0.0
 11
80.0
 21
159.0
 31
0.0
  0
LINE
  5
29F
330
211
100
AcDbEntity
  8
0
  6
Continuous
 62
     7
370
    25
100
AcDbLine
 10
80.0
 20
160.0
 30
0.0
 11
253.0603485773
 21
160.0
 31
0.0
  0
LINE
  5
2A0
330
211
100
AcDbEntity
  8
0
  6
Continuous
 62
     7
370
    25
100
AcDbLine
 10
-253.0832161278
 20
160.0
 30
0.0
 11
-80.0
 21
160.0
 31
0.0
  0
LINE
  5
2A1
330
211
100
AcDbEntity
  8
0
  6
Continuous
 62
     7
370
    25
100
AcDbLine
 10
-80.0
 20
159.0
 30
0.0
 11
-80.0
 21
176.0
 31
0.0
  0
LINE
  5
2A2
330
211
100
AcDbEntity
  8
0
  6
Continuous
 62
     7
370
    25
100
AcDbLine
 10
-261.0
 20
228.0
 30
0.0
 11
-261.0
 21
-184.0
 31
0.0
  0
LINE
  5
2A3
330
211
100
AcDbEntity
  8
0
  6
Continuous
 62
     7
370
    25
100
AcDbLine
 10
-279.2
 20
228.0
 30
0.0
 11
-279.2
 21
-184.0
 31
0.0
  0
LINE
  5
2A4
330
211
100
AcDbEntity
  8
0
  6
Continuous
 62
     7
370
    25
100
AcDbLine
 10
-261.0
 20
228.0
 30
0.0
 11
-279.2
 21
228.0
 31
0.0
  0
LINE
  5
2A5
330
211
100
AcDbEntity
  8
0
  6
Continuous
 62
     7
370
    25
100
AcDbLine
 10
-256.0
 20
228.0
 30
0.0
 11
-256.0
 21
179.0
 31
0.0
  0
LINE
  5
2A6
330
211
100
AcDbEntity
  8
0
  6
Continuous
 62
     7
370
    25
100
AcDbLine
 10
-257.8
 20
179.0
 30
0.0
 11
-257.8
 21
212.0
 31
0.0
  0
LINE
  5
2A7
330
211
100
AcDbEntity
  8
0
  6
Continuous
 62
     7
370
    25
100
AcDbLine
 10
-257.8
 20
211.0
 30
0.0
 11
-256.0
 21
211.0
 31
0.0
  0
LINE
  5
2A8
330
211
100
AcDbEntity
  8
0
  6
Continuous
 62
     7
370
    25
100
AcDbLine
 10
-257.8
 20
180.0
 30
0.0
 11
-256.0
 21
180.0
 31
0.0
  0
LINE
  5
2A9
330
211
100
AcDbEntity
  8
0
  6
Continuous
 62
     7
370
    25
100
AcDbLine
 10
-261.0
 20
176.0
 30
0.0
 11
-80.0
 21
176.0
 31
0.0
  0
LINE
  5
2AA
330
211
100
AcDbEntity
  8
0
  6
Continuous
 62
     7
370
    25
100
AcDbLine
 10
-261.0
 20
177.8
 30
0.0
 11
-259.0
 21
177.8
 31
0.0
  0
LINE
  5
2AB
330
211
100
AcDbEntity
  8
0
  6
Continuous
 62
     7
370
    25
100
AcDbLine
 10
-259.0
 20
213.2
 30
0.0
 11
-261.0
 21
213.2
 31
0.0
  0
LINE
  5
2AC
330
211
100
AcDbEntity
  8
0
  6
Continuous
 62
     7
370
    25
100
AcDbLine
 10
-261.0
 20
215.0
 30
0.0
 11
-259.0
 21
215.0
 31
0.0
  0
LINE
  5
2AD
330
211
100
AcDbEntity
  8
0
  6
Continuous
 62
     7
370
    25
100
AcDbLine
 10
-236.0
 20
200.25
 30
0.0
 11
-236.0
 21
190.75
 31
0.0
  0
LINE
  5
2AE
330
211
100
AcDbEntity
  8
0
  6
Continuous
 62
     7
370
    25
100
AcDbLine
 10
257.8
 20
211.0
 30
0.0
 11
256.0
 21
211.0
 31
0.0
  0
LINE
  5
2AF
330
211
100
AcDbEntity
  8
0
  6
Continuous
 62
     7
370
    25
100
AcDbLine
 10
257.8
 20
179.0
 30
0.0
 11
257.8
 21
212.0
 31
0.0
  0
LINE
  5
2B0
330
211
100
AcDbEntity
  8
0
  6
Continuous
 62
     7
370
    25
100
AcDbLine
 10
256.0
 20
228.0
 30
0.0
 11
256.0
 21
179.0
 31
0.0
  0
LINE
  5
2B1
330
211
100
AcDbEntity
  8
0
  6
Continuous
 62
     7
370
    25
100
AcDbLine
 10
257.8
 20
180.0
 30
0.0
 11
256.0
 21
180.0
 31
0.0
  0
LINE
  5
2B2
330
211
100
AcDbEntity
  8
0
  6
Continuous
 62
     7
370
    25
100
AcDbLine
 10
259.0
 20
177.8
 30
0.0
 11
261.0
 21
177.8
 31
0.0
  0
LINE
  5
2B3
330
211
100
AcDbEntity
  8
0
  6
Continuous
 62
     7
370
    25
100
AcDbLine
 10
80.0
 20
176.0
 30
0.0
 11
261.0
 21
176.0
 31
0.0
  0
LINE
  5
2B4
330
211
100
AcDbEntity
  8
0
  6
Continuous
 62
     7
370
    25
100
AcDbLine
 10
261.0
 20
213.2
 30
0.0
 11
259.0
 21
213.2
 31
0.0
  0
LINE
  5
2B5
330
211
100
AcDbEntity
  8
0
  6
Continuous
 62
     7
370
    25
100
AcDbLine
 10
261.0
 20
215.0
 30
0.0
 11
259.0
 21
215.0
 31
0.0
  0
LINE
  5
2B6
330
211
100
AcDbEntity
  8
0
  6
Continuous
 62
     7
370
    25
100
AcDbLine
 10
236.0
 20
190.75
 30
0.0
 11
236.0
 21
200.25
 31
0.0
  0
LINE
  5
2B7
330
211
100
AcDbEntity
  8
0
  6
Continuous
 62
     7
370
    25
100
AcDbLine
 10
80.0
 20
153.4775180146
 30
0.0
 11
80.0
 21
13.0
 31
0.0
  0
LINE
  5
2B8
330
211
100
AcDbEntity
  8
0
  6
Continuous
 62
     7
370
    25
100
AcDbLine
 10
-80.0
 20
13.0
 30
0.0
 11
-80.0
 21
153.4775180146
 31
0.0
  0
LINE
  5
2B9
330
211
100
AcDbEntity
  8
0
  6
Continuous
 62
     7
370
    25
100
AcDbLine
 10
-78.0
 20
178.0
 30
0.0
 11
-78.0
 21
13.0
 31
0.0
  0
LINE
  5
2BA
330
211
100
AcDbEntity
  8
0
  6
Continuous
 62
     7
370
    25
100
AcDbLine
 10
78.0
 20
13.0
 30
0.0
 11
78.0
 21
178.0
 31
0.0
  0
LINE
  5
2BB
330
211
100
AcDbEntity
  8
0
  6
Continuous
 62
     7
370
    25
100
AcDbLine
 10
78.0
 20
178.0
 30
0.0
 11
110.0
 21
178.0
 31
0.0
  0
LINE
  5
2BC
330
211
100
AcDbEntity
  8
0
  6
Continuous
 62
     7
370
    25
100
AcDbLine
 10
-85.0
 20
159.0
 30
0.0
 11
-80.0
 21
159.0
 31
0.0
  0
LINE
  5
2BD
330
211
100
AcDbEntity
  8
0
  6
Continuous
 62
     7
370
    25
100
AcDbLine
 10
80.0
 20
159.0
 30
0.0
 11
85.0
 21
159.0
 31
0.0
  0
LINE
  5
2BE
330
211
100
AcDbEntity
  8
0
  6
Continuous
 62
     7
370
    25
100
AcDbLine
 10
110.0
 20
178.0
 30
0.0
 11
110.0
 21
176.0
 31
0.0
  0
LINE
  5
2BF
330
211
100
AcDbEntity
  8
0
  6
Continuous
 62
     7
370
    25
100
AcDbLine
 10
-110.0
 20
176.0
 30
0.0
 11
-110.0
 21
178.0
 31
0.0
  0
LINE
  5
2C0
330
211
100
AcDbEntity
  8
0
  6
Continuous
 62
     7
370
    25
100
AcDbLine
 10
-110.0
 20
178.0
 30
0.0
 11
-78.0
 21
178.0
 31
0.0
  0
LINE
  5
2C1
330
211
100
AcDbEntity
  8
0
  6
Continuous
 62
     7
370
    25
100
AcDbLine
 10
261.0
 20
184.0
 30
0.0
 11
257.8
 21
184.0
 31
0.0
  0
LINE
  5
2C2
330
211
100
AcDbEntity
  8
0
  6
Continuous
 62
     7
370
    25
100
AcDbLine
 10
254.1
 20
184.0
 30
0.0
 11
-254.1
 21
184.0
 31
0.0
  0
LINE
  5
2C3
330
211
100
AcDbEntity
  8
0
  6
Continuous
 62
     7
370
    25
100
AcDbLine
 10
-257.8
 20
184.0
 30
0.0
 11
-261.0
 21
184.0
 31
0.0
  0
LINE
  5
2C4
330
211
100
AcDbEntity
  8
0
  6
Continuous
 62
     7
370
    25
100
AcDbLine
 10
279.2
 20
228.0
 30
0.0
 11
279.2
 21
-192.2
 31
0.0
  0
LINE
  5
2C5
330
211
100
AcDbEntity
  8
0
  6
Continuous
 62
     7
370
    25
100
AcDbLine
 10
-279.2
 20
-184.0
 30
0.0
 11
279.2
 21
-184.0
 31
0.0
  0
LINE
  5
2C6
330
211
100
AcDbEntity
  8
0
  6
Continuous
 62
     7
370
    25
100
AcDbLine
 10
261.0
 20
228.0
 30
0.0
 11
261.0
 21
-184.0
 31
0.0
  0
LINE
  5
2C7
330
211
100
AcDbEntity
  8
0
  6
Continuous
 62
     7
370
    25
100
AcDbLine
 10
261.0
 20
228.0
 30
0.0
 11
279.2
 21
228.0
 31
0.0
  0
LINE
  5
2C8
330
211
100
AcDbEntity
  8
0
  6
Continuous
 62
     7
370
    25
100
AcDbLine
 10
-278.5
 20
-184.0
 30
0.0
 11
-278.5
 21
-192.5
 31
0.0
  0
LINE
  5
2C9
330
211
100
AcDbEntity
  8
0
  6
Continuous
 62
     7
370
    25
100
AcDbLine
 10
278.5
 20
-184.0
 30
0.0
 11
278.5
 21
-192.5
 31
0.0
  0
LINE
  5
2CA
330
211
100
AcDbEntity
  8
0
  6
Continuous
 62
     7
370
    25
100
AcDbLine
 10
-268.5
 20
-202.5
 30
0.0
 11
268.5
 21
-202.5
 31
0.0
  0
LINE
  5
2CB
330
211
100
AcDbEntity
  8
0
  6
Continuous
 62
     7
370
    25
100
AcDbLine
 10
254.1
 20
180.1
 30
0.0
 11
256.0
 21
180.1
 31
0.0
  0
LINE
  5
2CC
330
211
100
AcDbEntity
  8
0
  6
Continuous
 62
     7
370
    25
100
AcDbLine
 10
256.0
 20
228.0
 30
0.0
 11
208.1
 21
228.0
 31
0.0
  0
LINE
  5
2CD
330
211
100
AcDbEntity
  8
0
  6
Continuous
 62
     7
370
    25
100
AcDbLine
 10
208.1
 20
226.1
 30
0.0
 11
208.1
 21
228.0
 31
0.0
  0
LINE
  5
2CE
330
211
100
AcDbEntity
  8
0
  6
Continuous
 62
     7
370
    25
100
AcDbLine
 10
254.1
 20
180.1
 30
0.0
 11
254.1
 21
226.1
 31
0.0
  0
LINE
  5
2CF
330
211
100
AcDbEntity
  8
0
  6
Continuous
 62
     7
370
    25
100
AcDbLine
 10
254.1
 20
226.1
 30
0.0
 11
208.1
 21
226.1
 31
0.0
  0
LINE
  5
2D0
330
211
100
AcDbEntity
  8
0
  6
Continuous
 62
     7
370
    25
100
AcDbLine
 10
200.2999687854
 20
176.0
 30
0.0
 11
200.2999687854
 21
177.5
 31
0.0
  0
LINE
  5
2D1
330
211
100
AcDbEntity
  8
0
  6
Continuous
 62
     7
370
    25
100
AcDbLine
 10
200.2999687854
 20
177.5
 30
0.0
 11
219.2999687854
 21
177.5
 31
0.0
  0
LINE
  5
2D2
330
211
100
AcDbEntity
  8
0
  6
Continuous
 62
     7
370
    25
100
AcDbLine
 10
219.2999687854
 20
176.0
 30
0.0
 11
219.2999687854
 21
177.5
 31
0.0
  0
LINE
  5
2D3
330
211
100
AcDbEntity
  8
0
  6
Continuous
 62
     7
370
    25
100
AcDbLine
 10
-217.8999687854
 20
176.0
 30
0.0
 11
-217.8999687854
 21
177.5
 31
0.0
  0
LINE
  5
2D4
330
211
100
AcDbEntity
  8
0
  6
Continuous
 62
     7
370
    25
100
AcDbLine
 10
-198.8999687854
 20
177.5
 30
0.0
 11
-217.8999687854
 21
177.5
 31
0.0
  0
LINE
  5
2D5
330
211
100
AcDbEntity
  8
0
  6
Continuous
 62
     7
370
    25
100
AcDbLine
 10
-198.8999687854
 20
176.0
 30
0.0
 11
-198.8999687854
 21
177.5
 31
0.0
  0
LINE
  5
2D6
330
211
100
AcDbEntity
  8
0
  6
Continuous
 62
     7
370
    25
100
AcDbLine
 10
261.0
 20
-165.8
 30
0.0
 11
-261.0
 21
-165.8
 31
0.0
  0
LINE
  5
2D7
330
211
100
AcDbEntity
  8
0
  6
Continuous
 62
     7
370
    25
100
AcDbLine
 10
253.0603485773
 20
160.0
 30
0.0
 11
253.0603485773
 21
176.0
 31
0.0
  0
LINE
  5
2D8
330
211
100
AcDbEntity
  8
0
  6
Continuous
 62
     7
370
    25
100
AcDbLine
 10
225.0
 20
160.0
 30
0.0
 11
225.0
 21
176.0
 31
0.0
  0
LINE
  5
2D9
330
211
100
AcDbEntity
  8
0
  6
Continuous
 62
     7
370
    25
100
AcDbLine
 10
260.0
 20
176.0
 30
0.0
 11
260.0
 21
-165.8
 31
0.0
  0
LINE
  5
2DA
330
211
100
AcDbEntity
  8
0
  6
Continuous
 62
     7
370
    25
100
AcDbLine
 10
232.7134404858
 20
160.0
 30
0.0
 11
232.7134404858
 21
-165.8
 31
0.0
  0
LINE
  5
2DB
330
211
100
AcDbEntity
  8
0
  6
Continuous
 62
     7
370
    25
100
AcDbLine
 10
228.3300779917
 20
160.0
 30
0.0
 11
228.3300779917
 21
-165.8
 31
0.0
  0
LINE
  5
2DC
330
211
100
AcDbEntity
  8
0
  6
Continuous
 62
     7
370
    25
100
AcDbLine
 10
-253.0832161278
 20
160.0
 30
0.0
 11
-253.0832161278
 21
176.0
 31
0.0
  0
LINE
  5
2DD
330
211
100
AcDbEntity
  8
0
  6
Continuous
 62
     7
370
    25
100
AcDbLine
 10
-225.0
 20
160.0
 30
0.0
 11
-225.0
 21
176.0
 31
0.0
  0
LINE
  5
2DE
330
211
100
AcDbEntity
  8
0
  6
Continuous
 62
     7
370
    25
100
AcDbLine
 10
-260.0
 20
176.0
 30
0.0
 11
-260.0
 21
-165.8
 31
0.0
  0
LINE
  5
2DF
330
211
100
AcDbEntity
  8
0
  6
Continuous
 62
     7
370
    25
100
AcDbLine
 10
-233.2093750222
 20
160.0
 30
0.0
 11
-233.2093750222
 21
-165.8
 31
0.0
  0
LINE
  5
2E0
330
211
100
AcDbEntity
  8
0
  6
Continuous
 62
     7
370
    25
100
AcDbLine
 10
-229.8300779917
 20
160.0
 30
0.0
 11
-229.8300779917
 21
-165.8
 31
0.0
  0
LINE
  5
2E1
330
211
100
AcDbEntity
  8
0
  6
Continuous
 62
     8
370
    25
100
AcDbLine
 10
-80.0
 20
13.0
 30
0.0
 11
-80.62158577
 21
13.0
 31
0.0
  0
LINE
  5
2E2
330
211
100
AcDbEntity
  8
0
  6
Continuous
 62
     8
370
    25
100
AcDbLine
 10
80.0
 20
13.0
 30
0.0
 11
80.62158577
 21
13.0
 31
0.0
  0
LINE
  5
2E3
330
211
100
AcDbEntity
  8
0
  6
Continuous
 62
     8
370
    25
100
AcDbLine
 10
246.2876565717
 20
-165.8
 30
0.0
 11
246.2876565717
 21
160.0
 31
0.0
  0
LINE
  5
2E4
330
211
100
AcDbEntity
  8
0
  6
Continuous
 62
     8
370
    25
100
AcDbLine
 10
-246.3221109623
 20
-165.8
 30
0.0
 11
-246.3221109623
 21
160.0
 31
0.0
  0
ARC
  5
2E5
330
211
100
AcDbEntity
  8
0
  6
Continuous
 62
     7
370
    25
100
AcDbCircle
 10
0.0
 20
11.0
 30
0.0
 40
79.99999999999997
100
AcDbArc
 50
197.4275917265
 51
342.5724082735
  0
ARC
  5
2E6
330
211
100
AcDbEntity
  8
0
  6
Continuous
 62
     7
370
    25
100
AcDbCircle
 10
-259.0
 20
179.0
 30
0.0
 40
1.200000000000131
100
AcDbArc
 50
270.0
 51
360.0
  0
ARC
  5
2E7
330
211
100
AcDbEntity
  8
0
  6
Continuous
 62
     7
370
    25
100
AcDbCircle
 10
-259.0
 20
179.0
 30
0.0
 40
3.000000000000057
100
AcDbArc
 50
270.0
 51
0.0
  0
ARC
  5
2E8
330
211
100
AcDbEntity
  8
0
  6
Continuous
 62
     7
370
    25
100
AcDbCircle
 10
-259.0
 20
212.0
 30
0.0
 40
1.200000000000102
100
AcDbArc
 50
0.0
 51
90.0
  0
ARC
  5
2E9
330
211
100
AcDbEntity
  8
0
  6
Continuous
 62
     7
370
    25
100
AcDbCircle
 10
-259.0
 20
212.0
 30
0.0
 40
3.000000000000057
100
AcDbArc
 50
0.0
 51
90.0
  0
ARC
  5
2EA
330
211
100
AcDbEntity
  8
0
  6
Continuous
 62
     7
370
    25
100
AcDbCircle
 10
259.0
 20
179.0
 30
0.0
 40
3.000000000000057
100
AcDbArc
 50
180.0
 51
270.0
  0
ARC
  5
2EB
330
211
100
AcDbEntity
  8
0
  6
Continuous
 62
     7
370
    25
100
AcDbCircle
 10
259.0
 20
179.0
 30
0.0
 40
1.200000000000102
100
AcDbArc
 50
180.0
 51
270.0
  0
ARC
  5
2EC
330
211
100
AcDbEntity
  8
0
  6
Continuous
 62
     7
370
    25
100
AcDbCircle
 10
259.0
 20
212.0
 30
0.0
 40
3.0
100
AcDbArc
 50
90.0
 51
180.0
  0
ARC
  5
2ED
330
211
100
AcDbEntity
  8
0
  6
Continuous
 62
     7
370
    25
100
AcDbCircle
 10
259.0
 20
212.0
 30
0.0
 40
1.200000000000074
100
AcDbArc
 50
90.0
 51
180.0
  0
ARC
  5
2EE
330
211
100
AcDbEntity
  8
0
  6
Continuous
 62
     7
370
    25
100
AcDbCircle
 10
0.0
 20
13.0
 30
0.0
 40
78.0
100
AcDbArc
 50
180.0
 51
0.0
  0
ARC
  5
2EF
330
211
100
AcDbEntity
  8
0
  6
Continuous
 62
     7
370
    25
100
AcDbCircle
 10
-85.5497807279
 20
153.4775180146
 30
0.0
 40
5.549780727858963
100
AcDbArc
 50
0.0
 51
84.3147545378
  0
ARC
  5
2F0
330
211
100
AcDbEntity
  8
0
  6
Continuous
 62
     7
370
    25
100
AcDbCircle
 10
85.5497807279
 20
153.4775180146
 30
0.0
 40
5.549780727858902
100
AcDbArc
 50
95.6852454622
 51
180.0
  0
ARC
  5
2F1
330
211
100
AcDbEntity
  8
0
  6
Continuous
 62
     7
370
    25
100
AcDbCircle
 10
0.0
 20
13.0
 30
0.0
 40
80.00000000000001
100
AcDbArc
 50
180.0
 51
0.0
  0
ARC
  5
2F2
330
211
100
AcDbEntity
  8
0
  6
Continuous
 62
     7
370
    25
100
AcDbCircle
 10
269.2
 20
-192.2
 30
0.0
 40
10.00000000000011
100
AcDbArc
 50
291.016304627
 51
0.0
  0
ARC
  5
2F3
330
211
100
AcDbEntity
  8
0
  6
Continuous
 62
     7
370
    25
100
AcDbCircle
 10
-268.5
 20
-192.5
 30
0.0
 40
10.00000000000011
100
AcDbArc
 50
180.0
 51
270.0
  0
ARC
  5
2F4
330
211
100
AcDbEntity
  8
0
  6
Continuous
 62
     7
370
    25
100
AcDbCircle
 10
268.5
 20
-192.5
 30
0.0
 40
10.00000000000011
100
AcDbArc
 50
270.0
 51
0.0
  0
VIEWPORT
  5
48B
330
211
100
AcDbEntity
  8
0
100
AcDbViewport
 10
0.0
 20
0.0
 30
0.0
 40
205.6
 41
156.0
 68
     1
 69
     1
 12
0.0
 22
295.25
 13
0.0
 23
0.0
 14
10.0
 24
10.0
 15
10.0
 25
10.0
 16
0.0
 26
0.0
 36
1.0
 17
0.0
 27
0.0
 37
0.0
 42
50.0
 43
0.0
 44
0.0
 45
621.69
 50
0.0
 51
0.0
 72
   100
 90
   557152
  1

281
     0
 71
     1
 74
     0
110
0.0
120
0.0
130
0.0
111
1.0
121
0.0
131
0.0
112
0.0
122
1.0
132
0.0
 79
     0
146
0.0
  0
ENDBLK
  5
214
330
211
100
AcDbEntity
  8
0
100
AcDbBlockEnd
  0
BLOCK
  5
2F7
330
2F5
100
AcDbEntity
  8
0
100
AcDbBlockBegin
  2
*Paper_Space2
 70
     0
 10
0.0
 20
0.0
 30
0.0
  3
*Paper_Space2
  1

  0
LWPOLYLINE
  5
309
330
2F5
100
AcDbEntity
  8
0
  6
Continuous
 62
     7
370
    25
100
AcDbPolyline
 90
       10
 70
   128
 43
0.0
 10
2.1213203436
 20
521.3760260291
 10
2.8468546315
 20
521.1049143091
 10
3.4848787766
 20
521.1619632821
 10
3.9584376506
 20
521.5402919998
 10
4.2104130645
 20
522.1942684356
 10
4.2104130645
 20
523.0450133794
 10
3.9584376506
 20
523.9899144355
 10
3.4848787766
 20
524.9150025912
 10
2.8468546315
 20
525.7086985621
 10
2.1213203436
 20
526.2752709004
  0
LWPOLYLINE
  5
30B
330
2F5
100
AcDbEntity
  8
0
  6
Continuous
 62
     7
370
    25
100
AcDbPolyline
 90
       10
 70
   128
 43
0.0
 10
-9.1923881554
 20
532.806535795
 10
-9.9179224434
 20
533.0776475149
 10
-10.5559465884
 20
533.020598542
 10
-11.0295054625
 20
532.6422698242
 10
-11.2814808764
 20
531.9882933884
 10
-11.2814808764
 20
531.1375484446
 10
-11.0295054625
 20
530.1926473885
 10
-10.5559465884
 20
529.2675592328
 10
-9.9179224434
 20
528.4738632619
 10
-9.1923881554
 20
527.9072909236
  0
LWPOLYLINE
  5
30D
330
2F5
100
AcDbEntity
  8
0
  6
Continuous
 62
     7
370
    25
100
AcDbPolyline
 90
       10
 70
   128
 43
0.0
 10
-5.6568542495
 20
550.3624950007
 10
-5.5289229791
 20
549.4508216337
 10
-5.1605595672
 20
548.5014032289
 10
-4.5961940777
 20
547.6287536578
 10
-3.9038973178
 20
546.9381273376
 10
-3.167170494
 20
546.5128239951
 10
-2.4748737342
 20
546.4041414901
 10
-1.9105082447
 20
546.6251885368
 10
-1.5421448328
 20
547.149303599
 10
-1.4142135624
 20
547.9132706652
  0
LWPOLYLINE
  5
30F
330
2F5
100
AcDbEntity
  8
0
  6
Continuous
 62
     7
370
    25
100
AcDbPolyline
 90
       10
 70
   128
 43
0.0
 10
-1.4142135624
 20
556.078678784
 10
-1.5421448328
 20
556.990352151
 10
-1.9105082447
 20
557.9397705558
 10
-2.4748737342
 20
558.8124201269
 10
-3.167170494
 20
559.5030464471
 10
-3.9038973178
 20
559.9283497896
 10
-4.5961940777
 20
560.0370322946
 10
-5.1605595672
 20
559.8159852479
 10
-5.5289229791
 20
559.2918701857
 10
-5.6568542495
 20
558.5279031195
  0
LWPOLYLINE
  5
311
330
2F5
100
AcDbEntity
  8
0
  6
Continuous
 62
     7
370
    25
100
AcDbPolyline
 90
       10
 70
   128
 43
0.0
 10
2.1213203436
 20
573.6346379897
 10
2.8468546315
 20
573.3635262698
 10
3.4848787766
 20
573.4205752427
 10
3.9584376506
 20
573.7989039605
 10
4.2104130645
 20
574.4528803963
 10
4.2104130645
 20
575.3036253401
 10
3.9584376506
 20
576.2485263962
 10
3.4848787766
 20
577.1736145519
 10
2.8468546315
 20
577.9673105228
 10
2.1213203436
 20
578.5338828611
  0
LWPOLYLINE
  5
313
330
2F5
100
AcDbEntity
  8
0
  6
Continuous
 62
     7
370
    25
100
AcDbPolyline
 90
       10
 70
   128
 43
0.0
 10
-9.1923881554
 20
585.0651477556
 10
-9.9179224434
 20
585.3362594756
 10
-10.5559465884
 20
585.2792105027
 10
-11.0295054625
 20
584.9008817849
 10
-11.2814808764
 20
584.2469053491
 10
-11.2814808764
 20
583.3961604053
 10
-11.0295054625
 20
582.4512593492
 10
-10.5559465884
 20
581.5261711935
 10
-9.9179224434
 20
580.7324752226
 10
-9.1923881554
 20
580.1659028843
  0
LWPOLYLINE
  5
318
330
2F5
100
AcDbEntity
  8
0
  6
Continuous
 62
     7
370
    25
100
AcDbPolyline
 90
       12
 70
   128
 43
0.0
 10
-43.1335136524
 20
528.7250260361
 10
-42.9902996872
 20
527.6574710449
 10
-42.5722601353
 20
526.8417543348
 10
-41.913262075
 20
526.3439604223
 10
-41.0666936099
 20
526.2044176097
 10
-40.1011386825
 20
526.4344308258
 10
-39.0948208104
 20
527.0153657678
 10
-38.1292658829
 20
527.9001585416
 10
-37.2826974179
 20
529.0171284988
 10
-36.6236993576
 20
530.2757853763
 10
-36.2056598057
 20
531.5741602794
 10
-36.0624458405
 20
532.8070665952
  0
LWPOLYLINE
  5
31B
330
2F5
100
AcDbEntity
  8
0
  6
Continuous
 62
     7
370
    25
100
AcDbPolyline
 90
       12
 70
   128
 43
0.0
 10
-36.0624458405
 20
573.6341071895
 10
-36.2056598057
 20
574.7016621807
 10
-36.6236993576
 20
575.5173788908
 10
-37.2826974179
 20
576.0151728033
 10
-38.1292658829
 20
576.1547156159
 10
-39.0948208104
 20
575.9247023998
 10
-40.1011386825
 20
575.3437674578
 10
-41.0666936099
 20
574.458974684
 10
-41.913262075
 20
573.3420047268
 10
-42.5722601353
 20
572.0833478493
 10
-42.9902996872
 20
570.7849729462
 10
-43.1335136524
 20
569.5520666304
  0
LWPOLYLINE
  5
328
330
2F5
100
AcDbEntity
  8
0
  6
Continuous
 62
     7
370
    25
100
AcDbPolyline
 90
        3
 70
   128
 43
0.0
 10
-37.4059487248
 20
574.4096948957
 10
-37.54916269
 20
575.4772498869
 10
-37.8618522761
 20
576.1519013166
  0
LWPOLYLINE
  5
339
330
2F5
100
AcDbEntity
  8
0
  6
Continuous
 62
     7
370
    25
100
AcDbPolyline
 90
        9
 70
   128
 43
0.0
 10
-42.677610101
 20
526.9828196152
 10
-42.4101964942
 20
526.9800053159
 10
-41.4446415667
 20
527.210018532
 10
-40.4383236947
 20
527.790953474
 10
-39.4727687672
 20
528.6757462478
 10
-38.6262003022
 20
529.792716205
 10
-37.9672022419
 20
531.0513730825
 10
-37.54916269
 20
532.3497479856
 10
-37.4059487248
 20
533.5826543014
  0
LWPOLYLINE
  5
352
330
2F5
100
AcDbEntity
  8
0
  6
Continuous
 62
     7
370
    25
100
AcDbPolyline
 90
       19
 70
   128
 43
0.0
 10
-83.9335749268
 20
296.7907142839
 10
-90.258498627
 20
297.8865706595
 10
-96.6660664899
 20
299.3212658614
 10
-103.1462336897
 20
301.0925507891
 10
-109.6888415899
 20
303.1976486872
 10
-116.2836336692
 20
305.6332594983
 10
-122.9202715994
 20
308.3955650362
 10
-129.5883514528
 20
311.4802349718
 10
-136.2774200119
 20
314.8824336211
 10
-142.9769911559
 20
318.5968275262
 10
-149.6765622999
 20
322.6175938164
 10
-156.365630859
 20
326.938429336
 10
-163.0337107124
 20
331.5525605257
 10
-169.6703486427
 20
336.4527540411
 10
-176.2651407219
 20
341.6313280922
 10
-182.8077486222
 20
347.0801644858
 10
-189.2879158219
 20
352.7907213514
 10
-195.6954836848
 20
358.7540465328
 10
-202.020407385
 20
364.9607916211
  0
LWPOLYLINE
  5
355
330
2F5
100
AcDbEntity
  8
0
  6
Continuous
 62
     7
370
    25
100
AcDbPolyline
 90
       15
 70
   128
 43
0.0
 10
-85.3002454987
 20
307.1332437205
 10
-90.2768902721
 20
308.5218646067
 10
-96.8194981723
 20
310.6269625048
 10
-103.4142902516
 20
313.0625733159
 10
-110.0509281818
 20
315.8248788538
 10
-116.7190080353
 20
318.9095487893
 10
-123.4080765943
 20
322.3117474386
 10
-130.1076477383
 20
326.0261413438
 10
-136.8072188824
 20
330.046907634
 10
-143.4962874414
 20
334.3677431536
 10
-150.1643672949
 20
338.9818743433
 10
-156.8010052251
 20
343.8820678587
 10
-163.3957973043
 20
349.0606419098
 10
-169.9384052046
 20
354.5094783033
 10
-174.915049978
 20
358.8667691674
  0
LWPOLYLINE
  5
356
330
2F5
100
AcDbEntity
  8
0
  6
Continuous
 62
     7
370
    25
100
AcDbPolyline
 90
        9
 70
   128
 43
0.0
 10
-332.8351619045
 20
448.6426230829
 10
-334.0787902157
 20
447.767821211
 10
-335.0028894178
 20
446.769766955
 10
-335.5719468967
 20
445.6868149803
 10
-335.7640940926
 20
444.5605825238
 10
-335.5719468967
 20
443.4343500673
 10
-335.0028894178
 20
442.3513980926
 10
-334.0787902157
 20
441.3533438366
 10
-332.8351619045
 20
440.4785419647
  0
LWPOLYLINE
  5
373
330
2F5
100
AcDbEntity
  8
0
  6
Continuous
 62
     7
370
    25
100
AcDbPolyline
 90
        9
 70
   128
 43
0.0
 10
-37.4059487248
 20
534.026422979
 10
-37.4766594029
 20
533.9872363088
 10
-38.1531545281
 20
533.4413153149
 10
-38.7266594029
 20
532.667728502
 10
-39.109863109
 20
531.7842474496
 10
-39.2444263559
 20
530.9253741393
 10
-39.109863109
 20
530.2218642468
 10
-38.7266594029
 20
529.780820776
 10
-38.656814559
 20
529.744761232
  0
LWPOLYLINE
  5
374
330
2F5
100
AcDbEntity
  8
0
  6
Continuous
 62
     7
370
    25
100
AcDbPolyline
 90
       17
 70
   128
 43
0.0
 10
-37.4766594029
 20
593.5947155765
 10
-36.8001642777
 20
594.1406365703
 10
-36.2266594029
 20
594.9142233833
 10
-35.8434556968
 20
595.7977044357
 10
-35.7088924499
 20
596.656577746
 10
-35.8434556968
 20
597.3600876384
 10
-36.2266594029
 20
597.8011311093
 10
-36.8001642777
 20
597.9125632881
 10
-37.4766594029
 20
597.6774196359
 10
-38.1531545281
 20
597.131498642
 10
-38.7266594029
 20
596.3579118291
 10
-39.109863109
 20
595.4744307767
 10
-39.2444263559
 20
594.6155574664
 10
-39.109863109
 20
593.9120475739
 10
-38.7266594029
 20
593.4710041031
 10
-38.1531545281
 20
593.3595719242
 10
-37.4766594029
 20
593.5947155765
  0
LWPOLYLINE
  5
383
330
2F5
100
AcDbEntity
  8
0
  6
Continuous
 62
     7
370
    25
100
AcDbPolyline
 90
       24
 70
   128
 43
0.0
 10
-28.6378246381
 20
548.6867955486
 10
-27.7316427875
 20
549.3537510503
 10
-26.8926682993
 20
550.2588972223
 10
-26.1831240732
 20
551.3351035138
 10
-25.6556337585
 20
552.5025526276
 10
-25.3493188987
 20
553.6746602036
 10
-25.2868974657
 20
554.7644963849
 10
-25.4729989716
 20
555.6912330077
 10
-25.893821119
 20
556.386138256
 10
-26.5181534545
 20
556.7976741867
 10
-27.2996921048
 20
556.8953190625
 10
-28.1804739236
 20
556.6718310095
 10
-29.0951753526
 20
556.1437851143
 10
-29.9759571713
 20
555.3503441253
 10
-30.7574958216
 20
554.3503539309
 10
-31.3818281571
 20
553.2179792291
 10
-31.8026503045
 20
552.0372030714
 10
-31.9887518104
 20
550.8955982236
 10
-31.9263303774
 20
549.8778322948
 10
-31.6200155176
 20
549.0593883279
 10
-31.0925252029
 20
548.500966568
 10
-30.3829809768
 20
548.2439826022
 10
-29.5440064886
 20
548.3074957558
 10
-28.6378246381
 20
548.6867955486
  0
LWPOLYLINE
  5
389
330
2F5
100
AcDbEntity
  8
0
  6
Continuous
 62
     7
370
    25
100
AcDbPolyline
 90
        9
 70
   128
 43
0.0
 10
51.9564512529
 20
399.3046140828
 10
52.6080407821
 20
399.7572068568
 10
53.1052359786
 20
400.2709668769
 10
53.4312610158
 20
400.828559404
 10
53.575115507
 20
401.4111707498
 10
53.5319456683
 20
401.9991430677
 10
53.3032080902
 20
402.5726376271
 10
52.8966205904
 20
403.1123041902
 10
52.3259018078
 20
403.5999339074
  0
LWPOLYLINE
  5
39F
330
2F5
100
AcDbEntity
  8
0
  6
Continuous
 62
     7
370
    25
100
AcDbPolyline
 90
       19
 70
   128
 43
0.0
 10
-83.43860018
 20
83.142857299
 10
-89.7635238802
 20
84.2387136746
 10
-96.1710917431
 20
85.6734088765
 10
-102.6512589428
 20
87.4446938042
 10
-109.1938668431
 20
89.5497917023
 10
-115.7886589224
 20
91.9854025134
 10
-122.4252968526
 20
94.7477080513
 10
-129.093376706
 20
97.8323779869
 10
-135.7824452651
 20
101.2345766362
 10
-142.4820164091
 20
104.9489705414
 10
-149.1815875531
 20
108.9697368316
 10
-155.8706561122
 20
113.2905723511
 10
-162.5387359656
 20
117.9047035408
 10
-169.1753738958
 20
122.8048970562
 10
-175.7701659751
 20
127.9834711074
 10
-182.3127738753
 20
133.4323075009
 10
-188.7929410751
 20
139.1428643665
 10
-195.200508938
 20
145.1061895479
 10
-201.5254326382
 20
151.3129346362
  0
LWPOLYLINE
  5
3A2
330
2F5
100
AcDbEntity
  8
0
  6
Continuous
 62
     7
370
    25
100
AcDbPolyline
 90
       19
 70
   128
 43
0.0
 10
-74.3061888596
 20
91.1804436958
 10
-76.8941804626
 20
91.6680274922
 10
-83.3017483255
 20
93.1027226941
 10
-89.7819155252
 20
94.8740076218
 10
-96.3245234255
 20
96.9791055199
 10
-102.9193155048
 20
99.414716331
 10
-109.555953435
 20
102.1770218689
 10
-116.2240332884
 20
105.2616918045
 10
-122.9131018475
 20
108.6638904538
 10
-129.6126729915
 20
112.3782843589
 10
-136.3122441355
 20
116.3990506491
 10
-143.0013126946
 20
120.7198861687
 10
-149.669392548
 20
125.3340173584
 10
-156.3060304782
 20
130.2342108738
 10
-162.9008225575
 20
135.4127849249
 10
-169.4434304577
 20
140.8616213185
 10
-175.9235976575
 20
146.5721781841
 10
-182.3311655204
 20
152.5355033655
 10
-184.9191571233
 20
155.0359510717
  0
LWPOLYLINE
  5
3A3
330
2F5
100
AcDbEntity
  8
0
  6
Continuous
 62
     7
370
    25
100
AcDbPolyline
 90
        9
 70
   128
 43
0.0
 10
-332.3401871577
 20
234.994766098
 10
-333.5838154688
 20
234.1199642261
 10
-334.5079146709
 20
233.1219099701
 10
-335.0769721498
 20
232.0389579954
 10
-335.2691193458
 20
230.9127255389
 10
-335.0769721498
 20
229.7864930824
 10
-334.5079146709
 20
228.7035411077
 10
-333.5838154688
 20
227.7054868517
 10
-332.3401871577
 20
226.8306849798
  0
LWPOLYLINE
  5
3AF
330
2F5
100
AcDbEntity
  8
0
  6
Continuous
 62
     7
370
    25
100
AcDbPolyline
 90
        9
 70
   128
 43
0.0
 10
-333.0472939389
 20
521.192294124
 10
-334.29092225
 20
520.3174922521
 10
-335.2150214521
 20
519.3194379961
 10
-335.784078931
 20
518.2364860213
 10
-335.976226127
 20
517.1102535648
 10
-335.784078931
 20
515.9840211084
 10
-335.2150214521
 20
514.9010691336
 10
-334.29092225
 20
513.9030148776
 10
-333.0472939389
 20
513.0282130057
  0
LINE
  5
3CE
330
2F5
100
AcDbEntity
  8
0
  6
Continuous
 62
     7
370
    25
100
AcDbLine
 10
-335.7640940926
 20
444.5605825238
 30
0.0
 11
-335.7640940926
 21
244.5080836118
 31
0.0
  0
LINE
  5
3CF
330
2F5
100
AcDbEntity
  8
0
  6
Continuous
 62
     7
370
    25
100
AcDbLine
 10
-30.2340187158
 20
594.8807781996
 30
0.0
 11
-30.2340187158
 21
607.2301509346
 31
0.0
  0
LINE
  5
3D0
330
2F5
100
AcDbEntity
  8
0
  6
Continuous
 62
     7
370
    25
100
AcDbLine
 10
-43.8112643675
 20
555.8401257208
 30
0.0
 11
-31.0126316281
 21
548.4516323088
 31
0.0
  0
LINE
  5
3D1
330
2F5
100
AcDbEntity
  8
0
  6
Continuous
 62
     7
370
    25
100
AcDbLine
 10
-26.263017648
 20
556.6790965014
 30
0.0
 11
-40.4051532718
 21
564.8431776196
 31
0.0
  0
LINE
  5
3D2
330
2F5
100
AcDbEntity
  8
0
  6
Continuous
 62
     7
370
    25
100
AcDbLine
 10
-335.2691193458
 20
230.9127255389
 30
0.0
 11
-335.2691193458
 21
30.8602266269
 31
0.0
  0
LINE
  5
3D3
330
2F5
100
AcDbEntity
  8
0
  6
Continuous
 62
     7
370
    25
100
AcDbLine
 10
-335.976226127
 20
517.1102535648
 30
0.0
 11
-335.976226127
 21
454.2366110496
 31
0.0
  0
LINE
  5
3D4
330
2F5
100
AcDbEntity
  8
0
  6
Continuous
 62
     7
370
    25
100
AcDbLine
 10
-57.9641757213
 20
480.7189011149
 30
0.0
 11
-154.4405424079
 21
425.0242801201
 31
0.0
  0
LINE
  5
3D5
330
2F5
100
AcDbEntity
  8
0
  6
Continuous
 62
     7
370
    25
100
AcDbLine
 10
12.7279220614
 20
580.5762301412
 30
0.0
 11
14.0714249456
 21
581.3518178475
 31
0.0
  0
LINE
  5
3D6
330
2F5
100
AcDbEntity
  8
0
  6
Continuous
 62
     7
370
    25
100
AcDbLine
 10
12.7279220614
 20
580.5762301412
 30
0.0
 11
-19.7989898732
 21
599.3536167132
 31
0.0
  0
LINE
  5
3D7
330
2F5
100
AcDbEntity
  8
0
  6
Continuous
 62
     7
370
    25
100
AcDbLine
 10
-52.3259018078
 20
580.5762301412
 30
0.0
 11
-19.7989898732
 21
599.3536167132
 31
0.0
  0
LINE
  5
3D8
330
2F5
100
AcDbEntity
  8
0
  6
Continuous
 62
     7
370
    25
100
AcDbLine
 10
-53.6694046921
 20
581.3518178475
 30
0.0
 11
-52.3259018078
 21
580.5762301412
 31
0.0
  0
LINE
  5
3D9
330
2F5
100
AcDbEntity
  8
0
  6
Continuous
 62
     7
370
    25
100
AcDbLine
 10
-53.6694046921
 20
581.3518178475
 30
0.0
 11
-19.7989898732
 21
600.9047921256
 31
0.0
  0
LINE
  5
3DA
330
2F5
100
AcDbEntity
  8
0
  6
Continuous
 62
     7
370
    25
100
AcDbLine
 10
14.0714249456
 20
581.3518178475
 30
0.0
 11
-19.7989898732
 21
600.9047921256
 31
0.0
  0
LINE
  5
3DB
330
2F5
100
AcDbEntity
  8
0
  6
Continuous
 62
     7
370
    25
100
AcDbLine
 10
12.7279220614
 20
507.0875570715
 30
0.0
 11
12.7279220614
 21
580.5762301412
 31
0.0
  0
LINE
  5
3DC
330
2F5
100
AcDbEntity
  8
0
  6
Continuous
 62
     7
370
    25
100
AcDbLine
 10
-19.7989898732
 20
525.8649436435
 30
0.0
 11
12.7279220614
 21
507.0875570715
 31
0.0
  0
LINE
  5
3DD
330
2F5
100
AcDbEntity
  8
0
  6
Continuous
 62
     7
370
    25
100
AcDbLine
 10
-19.7989898732
 20
599.3536167132
 30
0.0
 11
-19.7989898732
 21
525.8649436435
 31
0.0
  0
LINE
  5
3DE
330
2F5
100
AcDbEntity
  8
0
  6
Continuous
 62
     7
370
    25
100
AcDbLine
 10
2.1213203436
 20
526.2752709004
 30
0.0
 11
-9.1923881554
 21
532.806535795
 31
0.0
  0
LINE
  5
3DF
330
2F5
100
AcDbEntity
  8
0
  6
Continuous
 62
     7
370
    25
100
AcDbLine
 10
-9.1923881554
 20
527.9072909236
 30
0.0
 11
2.1213203436
 21
521.3760260291
 31
0.0
  0
LINE
  5
3E0
330
2F5
100
AcDbEntity
  8
0
  6
Continuous
 62
     7
370
    25
100
AcDbLine
 10
-1.4142135624
 20
547.9132706652
 30
0.0
 11
-1.4142135624
 21
556.078678784
 31
0.0
  0
LINE
  5
3E1
330
2F5
100
AcDbEntity
  8
0
  6
Continuous
 62
     7
370
    25
100
AcDbLine
 10
-5.6568542495
 20
558.5279031195
 30
0.0
 11
-5.6568542495
 21
550.3624950007
 31
0.0
  0
LINE
  5
3E2
330
2F5
100
AcDbEntity
  8
0
  6
Continuous
 62
     7
370
    25
100
AcDbLine
 10
2.1213203436
 20
578.5338828611
 30
0.0
 11
-9.1923881554
 21
585.0651477556
 31
0.0
  0
LINE
  5
3E3
330
2F5
100
AcDbEntity
  8
0
  6
Continuous
 62
     7
370
    25
100
AcDbLine
 10
-9.1923881554
 20
580.1659028843
 30
0.0
 11
2.1213203436
 21
573.6346379897
 31
0.0
  0
LINE
  5
3E4
330
2F5
100
AcDbEntity
  8
0
  6
Continuous
 62
     7
370
    25
100
AcDbLine
 10
12.7279220614
 20
507.0875570715
 30
0.0
 11
14.0714249456
 21
507.8631447778
 31
0.0
  0
LINE
  5
3E5
330
2F5
100
AcDbEntity
  8
0
  6
Continuous
 62
     7
370
    25
100
AcDbLine
 10
14.0714249456
 20
507.8631447778
 30
0.0
 11
14.0714249456
 21
581.3518178475
 31
0.0
  0
LINE
  5
3E6
330
2F5
100
AcDbEntity
  8
0
  6
Continuous
 62
     7
370
    25
100
AcDbLine
 10
-43.1335136524
 20
545.0558422738
 30
0.0
 11
-43.1335136524
 21
528.7250260361
 31
0.0
  0
LINE
  5
3E7
330
2F5
100
AcDbEntity
  8
0
  6
Continuous
 62
     7
370
    25
100
AcDbLine
 10
-36.0624458405
 20
532.8070665952
 30
0.0
 11
-36.0624458405
 21
551.3668280019
 31
0.0
  0
LINE
  5
3E8
330
2F5
100
AcDbEntity
  8
0
  6
Continuous
 62
     7
370
    25
100
AcDbLine
 10
-36.0624458405
 20
562.3361859824
 30
0.0
 11
-36.0624458405
 21
573.6341071895
 31
0.0
  0
LINE
  5
3E9
330
2F5
100
AcDbEntity
  8
0
  6
Continuous
 62
     7
370
    25
100
AcDbLine
 10
-43.1335136524
 20
569.5520666304
 30
0.0
 11
-43.1335136524
 21
562.3212384922
 31
0.0
  0
LINE
  5
3EA
330
2F5
100
AcDbEntity
  8
0
  6
Continuous
 62
     7
370
    25
100
AcDbLine
 10
-43.1335136524
 20
555.448868561
 30
0.0
 11
-43.1335136524
 21
553.2212503927
 31
0.0
  0
LINE
  5
3EB
330
2F5
100
AcDbEntity
  8
0
  6
Continuous
 62
     7
370
    25
100
AcDbLine
 10
-43.1335136524
 20
553.2212503927
 30
0.0
 11
-52.3259018078
 21
547.9145976658
 31
0.0
  0
LINE
  5
3EC
330
2F5
100
AcDbEntity
  8
0
  6
Continuous
 62
     7
370
    25
100
AcDbLine
 10
-52.3259018078
 20
580.5762301412
 30
0.0
 11
-52.3259018078
 21
547.9145976658
 31
0.0
  0
LINE
  5
3ED
330
2F5
100
AcDbEntity
  8
0
  6
Continuous
 62
     7
370
    25
100
AcDbLine
 10
-52.3259018078
 20
507.0875570715
 30
0.0
 11
-19.7989898732
 21
525.8649436435
 31
0.0
  0
LINE
  5
3EE
330
2F5
100
AcDbEntity
  8
0
  6
Continuous
 62
     7
370
    25
100
AcDbLine
 10
-52.3259018078
 20
539.749189547
 30
0.0
 11
-52.3259018078
 21
507.0875570715
 31
0.0
  0
LINE
  5
3EF
330
2F5
100
AcDbEntity
  8
0
  6
Continuous
 62
     7
370
    25
100
AcDbLine
 10
-52.3259018078
 20
539.749189547
 30
0.0
 11
-43.1335136524
 21
545.0558422738
 31
0.0
  0
LINE
  5
3F0
330
2F5
100
AcDbEntity
  8
0
  6
Continuous
 62
     7
370
    25
100
AcDbLine
 10
-53.6694046921
 20
548.6901853721
 30
0.0
 11
-52.3259018078
 21
547.9145976658
 31
0.0
  0
LINE
  5
3F1
330
2F5
100
AcDbEntity
  8
0
  6
Continuous
 62
     7
370
    25
100
AcDbLine
 10
-53.6694046921
 20
548.6901853721
 30
0.0
 11
-53.6694046921
 21
581.3518178475
 31
0.0
  0
LINE
  5
3F2
330
2F5
100
AcDbEntity
  8
0
  6
Continuous
 62
     7
370
    25
100
AcDbLine
 10
3.4648232278
 20
574.410225696
 30
0.0
 11
2.1213203436
 21
573.6346379897
 31
0.0
  0
LINE
  5
3F3
330
2F5
100
AcDbEntity
  8
0
  6
Continuous
 62
     7
370
    25
100
AcDbLine
 10
3.4648232278
 20
574.410225696
 30
0.0
 11
4.1341649851
 21
574.1489610075
 31
0.0
  0
LINE
  5
3F4
330
2F5
100
AcDbEntity
  8
0
  6
Continuous
 62
     7
370
    25
100
AcDbLine
 10
-37.4059487248
 20
574.4096948957
 30
0.0
 11
-36.0624458405
 21
573.6341071895
 31
0.0
  0
LINE
  5
3F5
330
2F5
100
AcDbEntity
  8
0
  6
Continuous
 62
     7
370
    25
100
AcDbLine
 10
-7.8488852712
 20
580.9414905906
 30
0.0
 11
-9.1923881554
 21
580.1659028843
 31
0.0
  0
LINE
  5
3F6
330
2F5
100
AcDbEntity
  8
0
  6
Continuous
 62
     7
370
    25
100
AcDbLine
 10
-7.8488852712
 20
580.9414905906
 30
0.0
 11
3.4648232278
 21
574.410225696
 31
0.0
  0
LINE
  5
3F7
330
2F5
100
AcDbEntity
  8
0
  6
Continuous
 62
     7
370
    25
100
AcDbLine
 10
-37.4059487248
 20
533.5826543014
 30
0.0
 11
-36.0624458405
 21
532.8070665952
 31
0.0
  0
LINE
  5
3F8
330
2F5
100
AcDbEntity
  8
0
  6
Continuous
 62
     7
370
    25
100
AcDbLine
 10
-37.4059487248
 20
533.5826543014
 30
0.0
 11
-37.4059487248
 21
552.1424157082
 31
0.0
  0
LINE
  5
3F9
330
2F5
100
AcDbEntity
  8
0
  6
Continuous
 62
     7
370
    25
100
AcDbLine
 10
-37.4059487248
 20
563.1117736886
 30
0.0
 11
-37.4059487248
 21
574.4096948957
 31
0.0
  0
LINE
  5
3FA
330
2F5
100
AcDbEntity
  8
0
  6
Continuous
 62
     7
370
    25
100
AcDbLine
 10
-53.6694046921
 20
540.5247772532
 30
0.0
 11
-52.3259018078
 21
539.749189547
 31
0.0
  0
LINE
  5
3FB
330
2F5
100
AcDbEntity
  8
0
  6
Continuous
 62
     7
370
    25
100
AcDbLine
 10
-52.3259018078
 20
507.0875570715
 30
0.0
 11
-53.6694046921
 21
507.8631447778
 31
0.0
  0
LINE
  5
3FC
330
2F5
100
AcDbEntity
  8
0
  6
Continuous
 62
     7
370
    25
100
AcDbLine
 10
-53.6694046921
 20
507.8631447778
 30
0.0
 11
-53.6694046921
 21
540.5247772532
 31
0.0
  0
LINE
  5
3FD
330
2F5
100
AcDbEntity
  8
0
  6
Continuous
 62
     7
370
    25
100
AcDbLine
 10
-44.4770165366
 20
545.83142998
 30
0.0
 11
-43.1335136524
 21
545.0558422738
 31
0.0
  0
LINE
  5
3FE
330
2F5
100
AcDbEntity
  8
0
  6
Continuous
 62
     7
370
    25
100
AcDbLine
 10
-53.6694046921
 20
540.5247772532
 30
0.0
 11
-44.4770165366
 21
545.83142998
 31
0.0
  0
LINE
  5
3FF
330
2F5
100
AcDbEntity
  8
0
  6
Continuous
 62
     7
370
    25
100
AcDbLine
 10
-4.3133513652
 20
559.3034908257
 30
0.0
 11
-5.6568542495
 21
558.5279031195
 31
0.0
  0
LINE
  5
400
330
2F5
100
AcDbEntity
  8
0
  6
Continuous
 62
     7
370
    25
100
AcDbLine
 10
-4.2048756632
 20
560.014178076
 30
0.0
 11
-4.3133513652
 21
559.3034908257
 31
0.0
  0
LINE
  5
401
330
2F5
100
AcDbEntity
  8
0
  6
Continuous
 62
     7
370
    25
100
AcDbLine
 10
-4.3133513652
 20
551.1380827069
 30
0.0
 11
-5.6568542495
 21
550.3624950007
 31
0.0
  0
LINE
  5
402
330
2F5
100
AcDbEntity
  8
0
  6
Continuous
 62
     7
370
    25
100
AcDbLine
 10
-4.3133513652
 20
559.3034908257
 30
0.0
 11
-4.3133513652
 21
551.1380827069
 31
0.0
  0
LINE
  5
403
330
2F5
100
AcDbEntity
  8
0
  6
Continuous
 62
     7
370
    25
100
AcDbLine
 10
3.4648232278
 20
522.1516137353
 30
0.0
 11
2.1213203436
 21
521.3760260291
 31
0.0
  0
LINE
  5
404
330
2F5
100
AcDbEntity
  8
0
  6
Continuous
 62
     7
370
    25
100
AcDbLine
 10
3.4648232278
 20
522.1516137353
 30
0.0
 11
4.1341649851
 21
521.8903490468
 31
0.0
  0
LINE
  5
405
330
2F5
100
AcDbEntity
  8
0
  6
Continuous
 62
     7
370
    25
100
AcDbLine
 10
-7.8488852712
 20
528.6828786299
 30
0.0
 11
-9.1923881554
 21
527.9072909236
 31
0.0
  0
LINE
  5
406
330
2F5
100
AcDbEntity
  8
0
  6
Continuous
 62
     7
370
    25
100
AcDbLine
 10
-7.8488852712
 20
528.6828786299
 30
0.0
 11
3.4648232278
 21
522.1516137353
 31
0.0
  0
LINE
  5
407
330
2F5
100
AcDbEntity
  8
0
  6
Continuous
 62
     7
370
    25
100
AcDbLine
 10
-48.4368145113
 20
407.0606447784
 30
0.0
 11
-85.8800280972
 21
385.4451376743
 31
0.0
  0
LINE
  5
408
330
2F5
100
AcDbEntity
  8
0
  6
Continuous
 62
     7
370
    25
100
AcDbLine
 10
55.8614357137
 20
401.5589136279
 30
0.0
 11
67.8822509939
 21
408.4983825784
 31
0.0
  0
LINE
  5
409
330
2F5
100
AcDbEntity
  8
0
  6
Continuous
 62
     7
370
    25
100
AcDbLine
 10
-34.6482322781
 20
467.6879706855
 30
0.0
 11
-45.9619407771
 21
461.1567057909
 31
0.0
  0
LINE
  5
40A
330
2F5
100
AcDbEntity
  8
0
  6
Continuous
 62
     7
370
    25
100
AcDbLine
 10
-34.6482322781
 20
467.6879706855
 30
0.0
 11
67.8822509939
 21
408.4983825784
 31
0.0
  0
LINE
  5
40B
330
2F5
100
AcDbEntity
  8
0
  6
Continuous
 62
     7
370
    25
100
AcDbLine
 10
-45.9619407771
 20
461.1567057909
 30
0.0
 11
56.5685424949
 21
401.9671176838
 31
0.0
  0
LINE
  5
40C
330
2F5
100
AcDbEntity
  8
0
  6
Continuous
 62
     7
370
    25
100
AcDbLine
 10
8.4774658569
 20
374.2047300797
 30
0.0
 11
-49.3773216787
 21
407.6035880093
 31
0.0
  0
LINE
  5
40D
330
2F5
100
AcDbEntity
  8
0
  6
Continuous
 62
     7
370
    25
100
AcDbLine
 10
-45.9619407771
 20
405.6319305827
 30
0.0
 11
-45.9619407771
 21
462.3815170088
 31
0.0
  0
LINE
  5
40E
330
2F5
100
AcDbEntity
  8
0
  6
Continuous
 62
     7
370
    25
100
AcDbLine
 10
46.8811795927
 20
21.2204650283
 30
0.0
 11
46.8811795927
 21
221.2729639403
 31
0.0
  0
LINE
  5
40F
330
2F5
100
AcDbEntity
  8
0
  6
Continuous
 62
     7
370
    25
100
AcDbLine
 10
61.0233152164
 20
221.2729639403
 30
0.0
 11
61.0233152164
 21
21.2204650283
 31
0.0
  0
LINE
  5
410
330
2F5
100
AcDbEntity
  8
0
  6
Continuous
 62
     7
370
    25
100
AcDbLine
 10
-83.9335749268
 20
296.7907142839
 30
0.0
 11
-75.659046378
 21
301.5674979384
 31
0.0
  0
LINE
  5
411
330
2F5
100
AcDbEntity
  8
0
  6
Continuous
 62
     7
370
    25
100
AcDbLine
 10
66.8215908221
 20
224.6202371988
 30
0.0
 11
57.8871675961
 21
229.7779699417
 31
0.0
  0
LINE
  5
412
330
2F5
100
AcDbEntity
  8
0
  6
Continuous
 62
     7
370
    25
100
AcDbLine
 10
61.0233152164
 20
221.2729639403
 30
0.0
 11
66.8215908221
 21
224.6202371988
 31
0.0
  0
LINE
  5
413
330
2F5
100
AcDbEntity
  8
0
  6
Continuous
 62
     7
370
    25
100
AcDbLine
 10
46.8811795927
 20
221.2729639403
 30
0.0
 11
-83.9335749268
 21
296.7907142839
 31
0.0
  0
LINE
  5
414
330
2F5
100
AcDbEntity
  8
0
  6
Continuous
 62
     7
370
    25
100
AcDbLine
 10
66.8215908221
 20
24.5677382867
 30
0.0
 11
66.8215908221
 21
224.6202371988
 31
0.0
  0
LINE
  5
415
330
2F5
100
AcDbEntity
  8
0
  6
Continuous
 62
     7
370
    25
100
AcDbLine
 10
61.0233152164
 20
21.2204650283
 30
0.0
 11
66.8215908221
 21
24.5677382867
 31
0.0
  0
LINE
  5
416
330
2F5
100
AcDbEntity
  8
0
  6
Continuous
 62
     7
370
    25
100
AcDbLine
 10
-332.8351619045
 20
440.4785419647
 30
0.0
 11
-332.8351619045
 21
240.4260430527
 31
0.0
  0
LINE
  5
417
330
2F5
100
AcDbEntity
  8
0
  6
Continuous
 62
     7
370
    25
100
AcDbLine
 10
-202.020407385
 20
364.9607916211
 30
0.0
 11
-332.8351619045
 21
440.4785419647
 31
0.0
  0
LINE
  5
418
330
2F5
100
AcDbEntity
  8
0
  6
Continuous
 62
     7
370
    25
100
AcDbLine
 10
-332.8351619045
 20
240.4260430527
 30
0.0
 11
46.8811795927
 21
21.2204650283
 31
0.0
  0
LINE
  5
419
330
2F5
100
AcDbEntity
  8
0
  6
Continuous
 62
     7
370
    25
100
AcDbLine
 10
-202.020407385
 20
364.9607916211
 30
0.0
 11
-193.7458788362
 21
369.7375752756
 31
0.0
  0
LINE
  5
41A
330
2F5
100
AcDbEntity
  8
0
  6
Continuous
 62
     7
370
    25
100
AcDbLine
 10
-332.8351619045
 20
448.6426230829
 30
0.0
 11
-331.6317011675
 21
449.3373661783
 31
0.0
  0
LINE
  5
41B
330
2F5
100
AcDbEntity
  8
0
  6
Continuous
 62
     7
370
    25
100
AcDbLine
 10
-23.3345237792
 20
689.5362704721
 30
0.0
 11
-314.662517628
 21
521.3561994366
 31
0.0
  0
LINE
  5
41C
330
2F5
100
AcDbEntity
  8
0
  6
Continuous
 62
     7
370
    25
100
AcDbLine
 10
-23.3345237792
 20
461.1567057909
 30
0.0
 11
-23.3345237792
 21
523.8239233639
 31
0.0
  0
LINE
  5
41D
330
2F5
100
AcDbEntity
  8
0
  6
Continuous
 62
     7
370
    25
100
AcDbLine
 10
-23.3345237792
 20
598.8637718461
 30
0.0
 11
-23.3345237792
 21
689.5362704721
 31
0.0
  0
LINE
  5
41E
330
2F5
100
AcDbEntity
  8
0
  6
Continuous
 62
     7
370
    25
100
AcDbLine
 10
-314.662517628
 20
521.3561994366
 30
0.0
 11
-314.662517628
 21
517.5184576208
 31
0.0
  0
LINE
  5
41F
330
2F5
100
AcDbEntity
  8
0
  6
Continuous
 62
     7
370
    25
100
AcDbLine
 10
-23.3345237792
 20
689.5362704721
 30
0.0
 11
-36.2038671968
 21
696.9655842897
 31
0.0
  0
LINE
  5
420
330
2F5
100
AcDbEntity
  8
0
  6
Continuous
 62
     7
370
    25
100
AcDbLine
 10
-314.662517628
 20
521.3561994366
 30
0.0
 11
-327.5318610456
 21
528.7855132542
 31
0.0
  0
LINE
  5
421
330
2F5
100
AcDbEntity
  8
0
  6
Continuous
 62
     7
370
    25
100
AcDbLine
 10
-36.2038671968
 20
696.9655842897
 30
0.0
 11
-327.5318610456
 21
528.7855132542
 31
0.0
  0
LINE
  5
422
330
2F5
100
AcDbEntity
  8
0
  6
Continuous
 62
     7
370
    25
100
AcDbLine
 10
-327.5318610456
 20
528.7855132542
 30
0.0
 11
-327.5318610456
 21
524.3762857601
 31
0.0
  0
LINE
  5
423
330
2F5
100
AcDbEntity
  8
0
  6
Continuous
 62
     7
370
    25
100
AcDbLine
 10
-58.6898628385
 20
515.4533522798
 30
0.0
 11
-58.6898628385
 21
592.5348049218
 31
0.0
  0
LINE
  5
424
330
2F5
100
AcDbEntity
  8
0
  6
Continuous
 62
     7
370
    25
100
AcDbLine
 10
-54.4472221514
 20
592.5348049218
 30
0.0
 11
-54.4472221514
 21
515.4533522798
 31
0.0
  0
LINE
  5
425
330
2F5
100
AcDbEntity
  8
0
  6
Continuous
 62
     7
370
    25
100
AcDbLine
 10
-60.1040764009
 20
593.3512130336
 30
0.0
 11
-58.6898628385
 21
592.5348049218
 31
0.0
  0
LINE
  5
426
330
2F5
100
AcDbEntity
  8
0
  6
Continuous
 62
     7
370
    25
100
AcDbLine
 10
-60.1040764009
 20
593.3512130336
 30
0.0
 11
-58.8312841947
 21
594.0859803342
 31
0.0
  0
LINE
  5
427
330
2F5
100
AcDbEntity
  8
0
  6
Continuous
 62
     7
370
    25
100
AcDbLine
 10
-58.8312841947
 20
594.0859803342
 30
0.0
 11
-57.4170706323
 21
593.2695722224
 31
0.0
  0
LINE
  5
428
330
2F5
100
AcDbEntity
  8
0
  6
Continuous
 62
     7
370
    25
100
AcDbLine
 10
-55.7200143575
 20
593.2695722224
 30
0.0
 11
-55.0129075763
 21
593.6777762783
 31
0.0
  0
LINE
  5
429
330
2F5
100
AcDbEntity
  8
0
  6
Continuous
 62
     7
370
    25
100
AcDbLine
 10
-55.0129075763
 20
593.6777762783
 30
0.0
 11
-53.7401153702
 21
592.9430089777
 31
0.0
  0
LINE
  5
42A
330
2F5
100
AcDbEntity
  8
0
  6
Continuous
 62
     7
370
    25
100
AcDbLine
 10
-54.4472221514
 20
592.5348049218
 30
0.0
 11
-53.7401153702
 21
592.9430089777
 31
0.0
  0
LINE
  5
42B
330
2F5
100
AcDbEntity
  8
0
  6
Continuous
 62
     7
370
    25
100
AcDbLine
 10
-53.7401153702
 20
592.9430089777
 30
0.0
 11
-53.7401153702
 21
594.4127824391
 31
0.0
  0
LINE
  5
42C
330
2F5
100
AcDbEntity
  8
0
  6
Continuous
 62
     7
370
    25
100
AcDbLine
 10
-31.8198051534
 20
607.0671081723
 30
0.0
 11
-53.7401153702
 21
594.4127824391
 31
0.0
  0
LINE
  5
42D
330
2F5
100
AcDbEntity
  8
0
  6
Continuous
 62
     7
370
    25
100
AcDbLine
 10
-31.8198051534
 20
607.0671081723
 30
0.0
 11
-31.8198051534
 21
605.5973347109
 31
0.0
  0
LINE
  5
42E
330
2F5
100
AcDbEntity
  8
0
  6
Continuous
 62
     7
370
    25
100
AcDbLine
 10
-31.8198051534
 20
605.5973347109
 30
0.0
 11
-31.1126983722
 21
606.0055387669
 31
0.0
  0
LINE
  5
42F
330
2F5
100
AcDbEntity
  8
0
  6
Continuous
 62
     7
370
    25
100
AcDbLine
 10
-53.6694046921
 20
514.4326032799
 30
0.0
 11
-53.7401153702
 21
514.3917828743
 31
0.0
  0
LINE
  5
430
330
2F5
100
AcDbEntity
  8
0
  6
Continuous
 62
     7
370
    25
100
AcDbLine
 10
-53.7401153702
 20
514.3917828743
 30
0.0
 11
-53.7401153702
 21
515.8615563357
 31
0.0
  0
LINE
  5
431
330
2F5
100
AcDbEntity
  8
0
  6
Continuous
 62
     7
370
    25
100
AcDbLine
 10
-53.7401153702
 20
515.8615563357
 30
0.0
 11
-54.4472221514
 21
515.4533522798
 31
0.0
  0
LINE
  5
432
330
2F5
100
AcDbEntity
  8
0
  6
Continuous
 62
     7
370
    25
100
AcDbLine
 10
-42.7799602618
 20
564.6080143798
 30
0.0
 11
-43.1335136524
 21
564.3823645803
 31
0.0
  0
LINE
  5
433
330
2F5
100
AcDbEntity
  8
0
  6
Continuous
 62
     7
370
    25
100
AcDbLine
 10
-55.0129075763
 20
593.6777762783
 30
0.0
 11
-55.0129075763
 21
595.1475497397
 31
0.0
  0
LINE
  5
434
330
2F5
100
AcDbEntity
  8
0
  6
Continuous
 62
     7
370
    25
100
AcDbLine
 10
-55.0129075763
 20
595.1475497397
 30
0.0
 11
-53.7401153702
 21
594.4127824391
 31
0.0
  0
LINE
  5
435
330
2F5
100
AcDbEntity
  8
0
  6
Continuous
 62
     7
370
    25
100
AcDbLine
 10
-55.0129075763
 20
595.1475497397
 30
0.0
 11
-33.0925973595
 21
607.801875473
 31
0.0
  0
LINE
  5
436
330
2F5
100
AcDbEntity
  8
0
  6
Continuous
 62
     7
370
    25
100
AcDbLine
 10
-33.0925973595
 20
607.801875473
 30
0.0
 11
-31.8198051534
 21
607.0671081723
 31
0.0
  0
LINE
  5
437
330
2F5
100
AcDbEntity
  8
0
  6
Continuous
 62
     7
370
    25
100
AcDbLine
 10
-60.1040764009
 20
516.2697603916
 30
0.0
 11
-58.6898628385
 21
515.4533522798
 31
0.0
  0
LINE
  5
438
330
2F5
100
AcDbEntity
  8
0
  6
Continuous
 62
     7
370
    25
100
AcDbLine
 10
-60.1040764009
 20
516.2697603916
 30
0.0
 11
-60.1040764009
 21
593.3512130336
 31
0.0
  0
LINE
  5
439
330
2F5
100
AcDbEntity
  8
0
  6
Continuous
 62
     7
370
    25
100
AcDbLine
 10
-32.3854905783
 20
607.7199958017
 30
0.0
 11
-33.7997041407
 21
608.5364039135
 31
0.0
  0
LINE
  5
43A
330
2F5
100
AcDbEntity
  8
0
  6
Continuous
 62
     7
370
    25
100
AcDbLine
 10
-33.7997041407
 20
608.5364039135
 30
0.0
 11
-32.5269119346
 21
609.2711712141
 31
0.0
  0
LINE
  5
43B
330
2F5
100
AcDbEntity
  8
0
  6
Continuous
 62
     7
370
    25
100
AcDbLine
 10
-32.5269119346
 20
609.2711712141
 30
0.0
 11
-31.1126983722
 21
608.4547631023
 31
0.0
  0
LINE
  5
43C
330
2F5
100
AcDbEntity
  8
0
  6
Continuous
 62
     7
370
    25
100
AcDbLine
 10
-33.7997041407
 20
607.3936714171
 30
0.0
 11
-33.7997041407
 21
608.5364039135
 31
0.0
  0
LINE
  5
43D
330
2F5
100
AcDbEntity
  8
0
  6
Continuous
 62
     7
370
    25
100
AcDbLine
 10
-55.0129075763
 20
515.1265501749
 30
0.0
 11
-53.7401153702
 21
514.3917828743
 31
0.0
  0
LINE
  5
43E
330
2F5
100
AcDbEntity
  8
0
  6
Continuous
 62
     7
370
    25
100
AcDbLine
 10
-55.0129075763
 20
515.1265501749
 30
0.0
 11
-55.0129075763
 21
515.1971342565
 31
0.0
  0
LINE
  5
43F
330
2F5
100
AcDbEntity
  8
0
  6
Continuous
 62
     7
370
    25
100
AcDbLine
 10
-28.965747729
 20
352.5892229755
 30
0.0
 11
51.9564512529
 21
399.3046140828
 31
0.0
  0
LINE
  5
440
330
2F5
100
AcDbEntity
  8
0
  6
Continuous
 62
     7
370
    25
100
AcDbLine
 10
52.3259018078
 20
403.5999339074
 30
0.0
 11
55.8614357137
 21
401.5589136279
 31
0.0
  0
LINE
  5
441
330
2F5
100
AcDbEntity
  8
0
  6
Continuous
 62
     7
370
    25
100
AcDbLine
 10
46.6690475583
 20
420.7445042557
 30
0.0
 11
48.0832611207
 21
421.5609123675
 31
0.0
  0
LINE
  5
442
330
2F5
100
AcDbEntity
  8
0
  6
Continuous
 62
     7
370
    25
100
AcDbLine
 10
48.0832611207
 20
421.5609123675
 30
0.0
 11
70.7106781187
 21
408.4983825784
 31
0.0
  0
LINE
  5
443
330
2F5
100
AcDbEntity
  8
0
  6
Continuous
 62
     7
370
    25
100
AcDbLine
 10
70.7106781187
 20
408.4983825784
 30
0.0
 11
-27.5515341667
 21
351.7728148637
 31
0.0
  0
LINE
  5
444
330
2F5
100
AcDbEntity
  8
0
  6
Continuous
 62
     7
370
    25
100
AcDbLine
 10
70.7106781187
 20
337.4593319443
 30
0.0
 11
70.7106781187
 21
408.4983825784
 31
0.0
  0
LINE
  5
445
330
2F5
100
AcDbEntity
  8
0
  6
Continuous
 62
     7
370
    25
100
AcDbLine
 10
70.7106781187
 20
337.4593319443
 30
0.0
 11
33.9767550615
 21
316.2532895467
 31
0.0
  0
LINE
  5
446
330
2F5
100
AcDbEntity
  8
0
  6
Continuous
 62
     7
370
    25
100
AcDbLine
 10
52.3259018078
 20
399.5401802631
 30
0.0
 11
52.3259018078
 21
403.5999339074
 31
0.0
  0
LINE
  5
447
330
2F5
100
AcDbEntity
  8
0
  6
Continuous
 62
     7
370
    25
100
AcDbLine
 10
47.3761543395
 20
-192.4273919566
 30
0.0
 11
47.3761543395
 21
7.6251069554
 31
0.0
  0
LINE
  5
448
330
2F5
100
AcDbEntity
  8
0
  6
Continuous
 62
     7
370
    25
100
AcDbLine
 10
61.5182899632
 20
7.6251069554
 30
0.0
 11
61.5182899632
 21
-192.4273919566
 31
0.0
  0
LINE
  5
449
330
2F5
100
AcDbEntity
  8
0
  6
Continuous
 62
     7
370
    25
100
AcDbLine
 10
-83.43860018
 20
83.142857299
 30
0.0
 11
-71.9108862212
 21
89.7976649159
 31
0.0
  0
LINE
  5
44A
330
2F5
100
AcDbEntity
  8
0
  6
Continuous
 62
     7
370
    25
100
AcDbLine
 10
67.316565569
 20
10.9723802139
 30
0.0
 11
52.3669055945
 21
19.602635217
 31
0.0
  0
LINE
  5
44B
330
2F5
100
AcDbEntity
  8
0
  6
Continuous
 62
     7
370
    25
100
AcDbLine
 10
61.5182899632
 20
7.6251069554
 30
0.0
 11
67.316565569
 21
10.9723802139
 31
0.0
  0
LINE
  5
44C
330
2F5
100
AcDbEntity
  8
0
  6
Continuous
 62
     7
370
    25
100
AcDbLine
 10
47.3761543395
 20
7.6251069554
 30
0.0
 11
-83.43860018
 21
83.142857299
 31
0.0
  0
LINE
  5
44D
330
2F5
100
AcDbEntity
  8
0
  6
Continuous
 62
     7
370
    25
100
AcDbLine
 10
67.316565569
 20
300.8443684333
 30
0.0
 11
67.316565569
 21
-189.0801186981
 31
0.0
  0
LINE
  5
44E
330
2F5
100
AcDbEntity
  8
0
  6
Continuous
 62
     7
370
    25
100
AcDbLine
 10
61.5182899632
 20
-192.4273919566
 30
0.0
 11
358.6445594178
 21
-20.9000476627
 31
0.0
  0
LINE
  5
44F
330
2F5
100
AcDbEntity
  8
0
  6
Continuous
 62
     7
370
    25
100
AcDbLine
 10
-332.3401871577
 20
226.8306849798
 30
0.0
 11
-332.3401871577
 21
26.7781860678
 31
0.0
  0
LINE
  5
450
330
2F5
100
AcDbEntity
  8
0
  6
Continuous
 62
     7
370
    25
100
AcDbLine
 10
-201.5254326382
 20
151.3129346362
 30
0.0
 11
-332.3401871577
 21
226.8306849798
 31
0.0
  0
LINE
  5
451
330
2F5
100
AcDbEntity
  8
0
  6
Continuous
 62
     7
370
    25
100
AcDbLine
 10
-332.3401871577
 20
26.7781860678
 30
0.0
 11
47.3761543395
 21
-192.4273919566
 31
0.0
  0
LINE
  5
452
330
2F5
100
AcDbEntity
  8
0
  6
Continuous
 62
     7
370
    25
100
AcDbLine
 10
-201.5254326382
 20
151.3129346362
 30
0.0
 11
-189.9977186793
 21
157.9677422531
 31
0.0
  0
LINE
  5
453
330
2F5
100
AcDbEntity
  8
0
  6
Continuous
 62
     7
370
    25
100
AcDbLine
 10
-332.3401871577
 20
234.994766098
 30
0.0
 11
-327.8835410107
 21
237.5675331558
 31
0.0
  0
LINE
  5
454
330
2F5
100
AcDbEntity
  8
0
  6
Continuous
 62
     7
370
    25
100
AcDbLine
 10
54.4472221514
 20
308.2736822509
 30
0.0
 11
67.316565569
 21
300.8443684333
 31
0.0
  0
LINE
  5
455
330
2F5
100
AcDbEntity
  8
0
  6
Continuous
 62
     7
370
    25
100
AcDbLine
 10
345.7752160002
 20
476.4537532864
 30
0.0
 11
54.4472221514
 21
308.2736822509
 31
0.0
  0
LINE
  5
456
330
2F5
100
AcDbEntity
  8
0
  6
Continuous
 62
     7
370
    25
100
AcDbLine
 10
345.7752160002
 20
476.4537532864
 30
0.0
 11
358.6445594178
 21
469.0244394688
 31
0.0
  0
LINE
  5
457
330
2F5
100
AcDbEntity
  8
0
  6
Continuous
 62
     7
370
    25
100
AcDbLine
 10
358.6445594178
 20
469.0244394688
 30
0.0
 11
67.316565569
 21
300.8443684333
 31
0.0
  0
LINE
  5
458
330
2F5
100
AcDbEntity
  8
0
  6
Continuous
 62
     7
370
    25
100
AcDbLine
 10
358.6445594178
 20
-20.9000476627
 30
0.0
 11
358.6445594178
 21
469.0244394688
 31
0.0
  0
LINE
  5
459
330
2F5
100
AcDbEntity
  8
0
  6
Continuous
 62
     7
370
    25
100
AcDbLine
 10
54.4472221514
 20
308.2736822509
 30
0.0
 11
54.4472221514
 21
304.435940435
 31
0.0
  0
LINE
  5
45A
330
2F5
100
AcDbEntity
  8
0
  6
Continuous
 62
     7
370
    25
100
AcDbLine
 10
54.4472221514
 20
18.4016940315
 30
0.0
 11
54.4472221514
 21
19.5367045778
 31
0.0
  0
LINE
  5
45B
330
2F5
100
AcDbEntity
  8
0
  6
Continuous
 62
     7
370
    25
100
AcDbLine
 10
-327.0368862988
 20
524.6620285992
 30
0.0
 11
-333.0472939389
 21
521.192294124
 31
0.0
  0
LINE
  5
45C
330
2F5
100
AcDbEntity
  8
0
  6
Continuous
 62
     7
370
    25
100
AcDbLine
 10
-327.0368862988
 20
524.6620285992
 30
0.0
 11
66.8215908221
 21
297.2923694566
 31
0.0
  0
LINE
  5
45D
330
2F5
100
AcDbEntity
  8
0
  6
Continuous
 62
     7
370
    25
100
AcDbLine
 10
66.8215908221
 20
297.2923694566
 30
0.0
 11
60.811183182
 21
293.8226349813
 31
0.0
  0
LINE
  5
45E
330
2F5
100
AcDbEntity
  8
0
  6
Continuous
 62
     7
370
    25
100
AcDbLine
 10
-333.0472939389
 20
513.0282130057
 30
0.0
 11
46.6690475583
 21
293.8226349813
 31
0.0
  0
LINE
  5
45F
330
2F5
100
AcDbEntity
  8
0
  6
Continuous
 62
     7
370
    25
100
AcDbLine
 10
60.811183182
 20
293.8226349813
 30
0.0
 11
60.811183182
 21
230.9489924661
 31
0.0
  0
LINE
  5
460
330
2F5
100
AcDbEntity
  8
0
  6
Continuous
 62
     7
370
    25
100
AcDbLine
 10
46.6690475583
 20
230.9489924661
 30
0.0
 11
46.6690475583
 21
293.8226349813
 31
0.0
  0
LINE
  5
461
330
2F5
100
AcDbEntity
  8
0
  6
Continuous
 62
     7
370
    25
100
AcDbLine
 10
-333.0472939389
 20
513.0282130057
 30
0.0
 11
-333.0472939389
 21
450.1545704905
 31
0.0
  0
LINE
  5
462
330
2F5
100
AcDbEntity
  8
0
  6
Continuous
 62
     7
370
    25
100
AcDbLine
 10
46.6690475583
 20
230.9489924661
 30
0.0
 11
-333.0472939389
 21
450.1545704905
 31
0.0
  0
LINE
  5
463
330
2F5
100
AcDbEntity
  8
0
  6
Continuous
 62
     7
370
    25
100
AcDbLine
 10
66.8215908221
 20
297.2923694566
 30
0.0
 11
66.8215908221
 21
234.4187269414
 31
0.0
  0
LINE
  5
464
330
2F5
100
AcDbEntity
  8
0
  6
Continuous
 62
     7
370
    25
100
AcDbLine
 10
66.8215908221
 20
234.4187269414
 30
0.0
 11
60.811183182
 21
230.9489924661
 31
0.0
  0
LINE
  5
465
330
2F5
100
AcDbEntity
  8
0
  6
Continuous
 62
     7
370
    25
100
AcDbLine
 10
-51.7668455246
 20
411.6668133719
 30
0.0
 11
-61.0389500277
 21
466.6289748009
 31
0.0
  0
LINE
  5
466
330
2F5
100
AcDbEntity
  8
0
  6
Continuous
 62
     7
370
    25
100
AcDbLine
 10
-51.7668455246
 20
411.6668133719
 30
0.0
 11
-91.5345348896
 21
388.7094149634
 31
0.0
  0
LINE
  5
467
330
2F5
100
AcDbEntity
  8
0
  6
Continuous
 62
     7
370
    25
100
AcDbLine
 10
-65.8197733386
 20
473.8451997351
 30
0.0
 11
-54.5060648396
 21
480.3764646297
 31
0.0
  0
LINE
  5
468
330
2F5
100
AcDbEntity
  8
0
  6
Continuous
 62
     7
370
    25
100
AcDbLine
 10
-49.3773216787
 20
407.6035880093
 30
0.0
 11
-86.8205352646
 21
385.9880809052
 31
0.0
  0
LINE
  5
469
330
2F5
100
AcDbEntity
  8
0
  6
Continuous
 62
     7
370
    25
100
AcDbLine
 10
-45.9619407771
 20
462.3815170088
 30
0.0
 11
-65.8197733386
 21
473.8451997351
 31
0.0
  0
LINE
  5
46A
330
2F5
100
AcDbEntity
  8
0
  6
Continuous
 62
     7
370
    25
100
AcDbLine
 10
-34.6482322781
 20
468.9127819033
 30
0.0
 11
-54.5060648396
 21
480.3764646297
 31
0.0
  0
LINE
  5
46B
330
2F5
100
AcDbEntity
  8
0
  6
Continuous
 62
     7
370
    25
100
AcDbLine
 10
-45.9619407771
 20
462.3815170088
 30
0.0
 11
-34.6482322781
 21
468.9127819033
 31
0.0
  0
LINE
  5
46C
330
2F5
100
AcDbEntity
  8
0
  6
Continuous
 62
     7
370
    25
100
AcDbLine
 10
-34.6482322781
 20
467.6879706855
 30
0.0
 11
-34.6482322781
 21
468.9127819033
 31
0.0
  0
LINE
  5
46D
330
2F5
100
AcDbEntity
  8
0
  6
Continuous
 62
     8
370
    25
100
AcDbLine
 10
-31.1126983722
 20
594.3735272311
 30
0.0
 11
-31.1126983722
 21
606.0055387669
 31
0.0
  0
LINE
  5
46E
330
2F5
100
AcDbEntity
  8
0
  6
Continuous
 62
     8
370
    25
100
AcDbLine
 10
-32.3854905783
 20
607.3936714171
 30
0.0
 11
-32.3854905783
 21
607.7199958017
 31
0.0
  0
LINE
  5
46F
330
2F5
100
AcDbEntity
  8
0
  6
Continuous
 62
     8
370
    25
100
AcDbLine
 10
-143.774373155
 20
418.8668316754
 30
0.0
 11
-61.0389500277
 21
466.6289748009
 31
0.0
  0
ARC
  5
470
330
2F5
100
AcDbEntity
  8
0
  6
Continuous
 62
     7
370
    25
100
AcDbCircle
 10
-5.8281196162
 20
584.5235450607
 30
0.0
 40
4.112737295193439
100
AcDbArc
 50
168.7427253506
 51
240.5710930715
  0
ARC
  5
471
330
2F5
100
AcDbEntity
  8
0
  6
Continuous
 62
     7
370
    25
100
AcDbCircle
 10
-0.2008713064
 20
551.0970631141
 30
0.0
 40
4.112684626995484
100
AcDbArc
 50
179.4285269296
 51
251.2523714444
  0
ARC
  5
472
330
2F5
100
AcDbEntity
  8
0
  6
Continuous
 62
     7
370
    25
100
AcDbCircle
 10
-5.8281196162
 20
532.2649331
 30
0.0
 40
4.112737295207291
100
AcDbArc
 50
168.7427253511
 51
240.5710930714
  0
ARC
  5
473
330
2F5
100
AcDbEntity
  8
0
  6
Continuous
 62
     7
370
    25
100
AcDbCircle
 10
53.9522474045
 20
234.9200747898
 30
0.0
 40
15.37021907911724
100
AcDbArc
 50
242.6096722366
 51
297.3903277634
  0
ARC
  5
474
330
2F5
100
AcDbEntity
  8
0
  6
Continuous
 62
     7
370
    25
100
AcDbCircle
 10
53.9522474045
 20
34.8675758778
 30
0.0
 40
15.37021907911713
100
AcDbArc
 50
242.6096722366
 51
297.3903277634
  0
ARC
  5
475
330
2F5
100
AcDbEntity
  8
0
  6
Continuous
 62
     7
370
    25
100
AcDbCircle
 10
-330.7595234677
 20
245.0071473808
 30
0.0
 40
5.029392784937686
100
AcDbArc
 50
185.6947992512
 51
245.6253417064
  0
ARC
  5
476
330
2F5
100
AcDbEntity
  8
0
  6
Continuous
 62
     7
370
    25
100
AcDbCircle
 10
-56.5685424949
 20
596.6289381766
 30
0.0
 40
4.611065723735678
100
AcDbArc
 50
242.6096722366
 51
297.3903277634
  0
ARC
  5
477
330
2F5
100
AcDbEntity
  8
0
  6
Continuous
 62
     7
370
    25
100
AcDbCircle
 10
-56.5685424949
 20
519.5474855346
 30
0.0
 40
4.61106572373634
100
AcDbArc
 50
242.6096722366
 51
297.3903277634
  0
ARC
  5
478
330
2F5
100
AcDbEntity
  8
0
  6
Continuous
 62
     7
370
    25
100
AcDbCircle
 10
-56.5685424949
 20
594.9072255244
 30
0.0
 40
1.844426289494618
100
AcDbArc
 50
242.6096722366
 51
297.3903277634
  0
ARC
  5
479
330
2F5
100
AcDbEntity
  8
0
  6
Continuous
 62
     7
370
    25
100
AcDbCircle
 10
-41.3911317882
 20
562.6914964212
 30
0.0
 40
2.3668302884592
100
AcDbArc
 50
65.3810279525
 51
125.9294304766
  0
ARC
  5
47A
330
2F5
100
AcDbEntity
  8
0
  6
Continuous
 62
     7
370
    25
100
AcDbCircle
 10
-40.3915848756
 20
597.3188182632
 30
0.0
 40
3.398845348569152
100
AcDbArc
 50
290.7235757379
 51
9.2818007948
  0
ARC
  5
47B
330
2F5
100
AcDbEntity
  8
0
  6
Continuous
 62
     7
370
    25
100
AcDbCircle
 10
-32.6139875407
 20
607.1889273728
 30
0.0
 40
0.5781388569867859
100
AcDbArc
 50
0.2878271119
 51
66.7197732297
  0
ARC
  5
47C
330
2F5
100
AcDbEntity
  8
0
  6
Continuous
 62
     7
370
    25
100
AcDbCircle
 10
-31.5774794526
 20
607.2301509346
 30
0.0
 40
1.309845950502877
100
AcDbArc
 50
290.7834207995
 51
69.2165792005
  0
ARC
  5
47D
330
2F5
100
AcDbEntity
  8
0
  6
Continuous
 62
     7
370
    25
100
AcDbCircle
 10
-40.1680925548
 20
533.1799042294
 30
0.0
 40
2.900498472703839
100
AcDbArc
 50
289.7310115678
 51
325.2911855409
  0
ARC
  5
47E
330
2F5
100
AcDbEntity
  8
0
  6
Continuous
 62
     7
370
    25
100
AcDbCircle
 10
54.4472221514
 20
21.272217805
 30
0.0
 40
15.37021907911722
100
AcDbArc
 50
242.6096722366
 51
297.3903277634
  0
ARC
  5
47F
330
2F5
100
AcDbEntity
  8
0
  6
Continuous
 62
     7
370
    25
100
AcDbCircle
 10
54.4472221514
 20
-178.7802811071
 30
0.0
 40
15.37021907911709
100
AcDbArc
 50
242.6096722366
 51
297.3903277634
  0
ARC
  5
480
330
2F5
100
AcDbEntity
  8
0
  6
Continuous
 62
     7
370
    25
100
AcDbCircle
 10
-330.2645487209
 20
31.3592903959
 30
0.0
 40
5.029392784937787
100
AcDbArc
 50
185.6947992512
 51
245.6253417064
  0
ARC
  5
481
330
2F5
100
AcDbEntity
  8
0
  6
Continuous
 62
     7
370
    25
100
AcDbCircle
 10
53.7401153702
 20
307.4697458309
 30
0.0
 40
15.3702190791179
100
AcDbArc
 50
242.6096722366
 51
297.3903277634
  0
ARC
  5
482
330
2F5
100
AcDbEntity
  8
0
  6
Continuous
 62
     7
370
    25
100
AcDbCircle
 10
53.7401153702
 20
244.5961033157
 30
0.0
 40
15.37021907911702
100
AcDbArc
 50
242.6096722366
 51
297.3903277634
  0
ARC
  5
483
330
2F5
100
AcDbEntity
  8
0
  6
Continuous
 62
     7
370
    25
100
AcDbCircle
 10
-330.9716555021
 20
454.7356748186
 30
0.0
 40
5.029392784937937
100
AcDbArc
 50
185.6947992512
 51
245.6253417064
  0
ARC
  5
484
330
2F5
100
AcDbEntity
  8
0
  6
Continuous
 62
     7
370
    25
100
AcDbCircle
 10
-56.5321295508
 20
477.5483208468
 30
0.0
 40
3.478984833393669
100
AcDbArc
 50
54.3824225248
 51
114.3071190461
  0
ARC
  5
485
330
2F5
100
AcDbEntity
  8
0
  6
Continuous
 62
     7
370
    25
100
AcDbCircle
 10
-71.7087014034
 20
464.7519394666
 30
0.0
 40
10.83359848175295
100
AcDbArc
 50
9.9774492891
 51
57.0723170869
  0
ARC
  5
486
330
2F5
100
AcDbEntity
  8
0
  6
Continuous
 62
     7
370
    25
100
AcDbCircle
 10
-44.4811548191
 20
413.2171874796
 30
0.0
 40
7.448821982767141
100
AcDbArc
 50
192.0131873468
 51
228.9051476174
  0
VIEWPORT
  5
48D
330
2F5
100
AcDbEntity
  8
0
100
AcDbViewport
 10
0.0
 20
0.0
 30
0.0
 40
205.6
 41
156.0
 68
     1
 69
     1
 12
0.0
 22
295.25
 13
0.0
 23
0.0
 14
10.0
 24
10.0
 15
10.0
 25
10.0
 16
0.0
 26
0.0
 36
1.0
 17
0.0
 27
0.0
 37
0.0
 42
50.0
 43
0.0
 44
0.0
 45
621.69
 50
0.0
 51
0.0
 72
   100
 90
   557152
  1

281
     0
 71
     1
 74
     0
110
0.0
120
0.0
130
0.0
111
1.0
121
0.0
131
0.0
112
0.0
122
1.0
132
0.0
 79
     0
146
0.0
  0
ENDBLK
  5
2F8
330
2F5
100
AcDbEntity
  8
0
100
AcDbBlockEnd
  0
ENDSEC
  0
SECTION
  2
ENTITIES
  0
LINE
  5
AC
330
1F
100
AcDbEntity
  8
0
  6
Continuous
 62
     7
370
    25
100
AcDbLine
 10
231.25
 20
-9.5
 30
0.0
 11
231.25
 21
0.0
 31
0.0
  0
LINE
  5
AD
330
1F
100
AcDbEntity
  8
0
  6
Continuous
 62
     7
370
    25
100
AcDbLine
 10
220.75
 20
0.0
 30
0.0
 11
220.75
 21
-9.5
 31
0.0
  0
LINE
  5
AE
330
1F
100
AcDbEntity
  8
0
  6
Continuous
 62
     7
370
    25
100
AcDbLine
 10
-220.75
 20
-9.5
 30
0.0
 11
-220.75
 21
0.0
 31
0.0
  0
LINE
  5
AF
330
1F
100
AcDbEntity
  8
0
  6
Continuous
 62
     7
370
    25
100
AcDbLine
 10
-231.25
 20
0.0
 30
0.0
 11
-231.25
 21
-9.5
 31
0.0
  0
LINE
  5
B0
330
1F
100
AcDbEntity
  8
0
  6
Continuous
 62
     7
370
    25
100
AcDbLine
 10
-268.5
 20
506.3
 30
0.0
 11
-268.5
 21
261.3
 31
0.0
  0
LINE
  5
B1
330
1F
100
AcDbEntity
  8
0
  6
Continuous
 62
     7
370
    25
100
AcDbLine
 10
-278.5
 20
261.3
 30
0.0
 11
-278.5
 21
506.3
 31
0.0
  0
LINE
  5
B2
330
1F
100
AcDbEntity
  8
0
  6
Continuous
 62
     7
370
    25
100
AcDbLine
 10
-83.5
 20
506.3
 30
0.0
 11
-278.5
 21
506.3
 31
0.0
  0
LINE
  5
B3
330
1F
100
AcDbEntity
  8
0
  6
Continuous
 62
     7
370
    25
100
AcDbLine
 10
268.5
 20
261.3
 30
0.0
 11
268.5
 21
506.3
 31
0.0
  0
LINE
  5
B4
330
1F
100
AcDbEntity
  8
0
  6
Continuous
 62
     7
370
    25
100
AcDbLine
 10
278.5
 20
506.3
 30
0.0
 11
83.5
 21
506.3
 31
0.0
  0
LINE
  5
B5
330
1F
100
AcDbEntity
  8
0
  6
Continuous
 62
     7
370
    25
100
AcDbLine
 10
278.5
 20
506.3
 30
0.0
 11
278.5
 21
261.3
 31
0.0
  0
LINE
  5
B6
330
1F
100
AcDbEntity
  8
0
  6
Continuous
 62
     7
370
    25
100
AcDbLine
 10
-278.5
 20
261.3
 30
0.0
 11
278.5
 21
261.3
 31
0.0
  0
LINE
  5
B7
330
1F
100
AcDbEntity
  8
0
  6
Continuous
 62
     7
370
    25
100
AcDbLine
 10
-261.0
 20
600.0
 30
0.0
 11
-279.2
 21
600.0
 31
0.0
  0
LINE
  5
B8
330
1F
100
AcDbEntity
  8
0
  6
Continuous
 62
     7
370
    25
100
AcDbLine
 10
-261.0
 20
600.0
 30
0.0
 11
-261.0
 21
595.3
 31
0.0
  0
LINE
  5
B9
330
1F
100
AcDbEntity
  8
0
  6
Continuous
 62
     7
370
    25
100
AcDbLine
 10
-261.0
 20
518.3
 30
0.0
 11
-261.0
 21
506.3
 31
0.0
  0
LINE
  5
BA
330
1F
100
AcDbEntity
  8
0
  6
Continuous
 62
     7
370
    25
100
AcDbLine
 10
-261.0
 20
261.3
 30
0.0
 11
-261.0
 21
245.0
 31
0.0
  0
LINE
  5
BB
330
1F
100
AcDbEntity
  8
0
  6
Continuous
 62
     7
370
    25
100
AcDbLine
 10
-279.2
 20
600.0
 30
0.0
 11
-279.2
 21
0.0
 31
0.0
  0
LINE
  5
BC
330
1F
100
AcDbEntity
  8
0
  6
Continuous
 62
     7
370
    25
100
AcDbLine
 10
220.75
 20
-9.5
 30
0.0
 11
231.25
 21
-9.5
 31
0.0
  0
LINE
  5
BD
330
1F
100
AcDbEntity
  8
0
  6
Continuous
 62
     7
370
    25
100
AcDbLine
 10
-231.25
 20
-9.5
 30
0.0
 11
-220.75
 21
-9.5
 31
0.0
  0
LINE
  5
BE
330
1F
100
AcDbEntity
  8
0
  6
Continuous
 62
     7
370
    25
100
AcDbLine
 10
269.2
 20
0.0
 30
0.0
 11
269.2
 21
245.0
 31
0.0
  0
LINE
  5
BF
330
1F
100
AcDbEntity
  8
0
  6
Continuous
 62
     7
370
    25
100
AcDbLine
 10
279.2
 20
245.0
 30
0.0
 11
84.2
 21
245.0
 31
0.0
  0
LINE
  5
C0
330
1F
100
AcDbEntity
  8
0
  6
Continuous
 62
     7
370
    25
100
AcDbLine
 10
279.2
 20
600.0
 30
0.0
 11
279.2
 21
0.0
 31
0.0
  0
LINE
  5
C1
330
1F
100
AcDbEntity
  8
0
  6
Continuous
 62
     7
370
    25
100
AcDbLine
 10
-279.2
 20
0.0
 30
0.0
 11
279.2
 21
0.0
 31
0.0
  0
LINE
  5
C2
330
1F
100
AcDbEntity
  8
0
  6
Continuous
 62
     7
370
    25
100
AcDbLine
 10
-267.8
 20
245.0
 30
0.0
 11
-267.8
 21
0.0
 31
0.0
  0
LINE
  5
C3
330
1F
100
AcDbEntity
  8
0
  6
Continuous
 62
     7
370
    25
100
AcDbLine
 10
-277.8
 20
0.0
 30
0.0
 11
-277.8
 21
245.0
 31
0.0
  0
LINE
  5
C4
330
1F
100
AcDbEntity
  8
0
  6
Continuous
 62
     7
370
    25
100
AcDbLine
 10
-82.8
 20
245.0
 30
0.0
 11
-277.8
 21
245.0
 31
0.0
  0
LINE
  5
C5
330
1F
100
AcDbEntity
  8
0
  6
Continuous
 62
     7
370
    25
100
AcDbLine
 10
261.0
 20
600.0
 30
0.0
 11
261.0
 21
595.3
 31
0.0
  0
LINE
  5
C6
330
1F
100
AcDbEntity
  8
0
  6
Continuous
 62
     7
370
    25
100
AcDbLine
 10
261.0
 20
506.3
 30
0.0
 11
261.0
 21
518.3
 31
0.0
  0
LINE
  5
C7
330
1F
100
AcDbEntity
  8
0
  6
Continuous
 62
     7
370
    25
100
AcDbLine
 10
261.0
 20
245.0
 30
0.0
 11
261.0
 21
261.3
 31
0.0
  0
LINE
  5
C8
330
1F
100
AcDbEntity
  8
0
  6
Continuous
 62
     7
370
    25
100
AcDbLine
 10
261.0
 20
600.0
 30
0.0
 11
279.2
 21
600.0
 31
0.0
  0
LINE
  5
C9
330
1F
100
AcDbEntity
  8
0
  6
Continuous
 62
     7
370
    25
100
AcDbLine
 10
278.5
 20
595.3
 30
0.0
 11
278.5
 21
518.3
 31
0.0
  0
LINE
  5
CA
330
1F
100
AcDbEntity
  8
0
  6
Continuous
 62
     7
370
    25
100
AcDbLine
 10
278.5
 20
518.3
 30
0.0
 11
-278.5
 21
518.3
 31
0.0
  0
LINE
  5
CB
330
1F
100
AcDbEntity
  8
0
  6
Continuous
 62
     7
370
    25
100
AcDbLine
 10
268.5
 20
518.3
 30
0.0
 11
268.5
 21
595.3
 31
0.0
  0
LINE
  5
CC
330
1F
100
AcDbEntity
  8
0
  6
Continuous
 62
     7
370
    25
100
AcDbLine
 10
-278.5
 20
595.3
 30
0.0
 11
278.5
 21
595.3
 31
0.0
  0
LINE
  5
CD
330
1F
100
AcDbEntity
  8
0
  6
Continuous
 62
     7
370
    25
100
AcDbLine
 10
-268.5
 20
595.3
 30
0.0
 11
-268.5
 21
518.3
 31
0.0
  0
LINE
  5
CE
330
1F
100
AcDbEntity
  8
0
  6
Continuous
 62
     7
370
    25
100
AcDbLine
 10
-278.5
 20
518.3
 30
0.0
 11
-278.5
 21
595.3
 31
0.0
  0
ARC
  5
CF
330
1F
100
AcDbEntity
  8
0
  6
Continuous
 62
     7
370
    25
100
AcDbCircle
 10
0.0
 20
730.60625
 30
0.0
 40
239.3439863231621
100
AcDbArc
 50
249.5817689431
 51
290.4182310569
  0
ARC
  5
D0
330
1F
100
AcDbEntity
  8
0
  6
Continuous
 62
     7
370
    25
100
AcDbCircle
 10
0.7
 20
469.30625
 30
0.0
 40
239.3439863231619
100
AcDbArc
 50
249.5817689431
 51
290.4182310569
  0
LINE
  5
166
330
1B
100
AcDbEntity
 67
     1
  8
0
  6
Continuous
 62
     7
370
    25
100
AcDbLine
 10
-220.75
 20
-9.5
 30
0.0
 11
-220.75
 21
0.0
 31
0.0
  0
LINE
  5
167
330
1B
100
AcDbEntity
 67
     1
  8
0
  6
Continuous
 62
     7
370
    25
100
AcDbLine
 10
-231.25
 20
0.0
 30
0.0
 11
-231.25
 21
-9.5
 31
0.0
  0
LINE
  5
168
330
1B
100
AcDbEntity
 67
     1
  8
0
  6
Continuous
 62
     7
370
    25
100
AcDbLine
 10
231.25
 20
-9.5
 30
0.0
 11
231.25
 21
0.0
 31
0.0
  0
LINE
  5
169
330
1B
100
AcDbEntity
 67
     1
  8
0
  6
Continuous
 62
     7
370
    25
100
AcDbLine
 10
220.75
 20
0.0
 30
0.0
 11
220.75
 21
-9.5
 31
0.0
  0
LINE
  5
16A
330
1B
100
AcDbEntity
 67
     1
  8
0
  6
Continuous
 62
     7
370
    25
100
AcDbLine
 10
-251.7
 20
42.5
 30
0.0
 11
250.3
 21
42.5
 31
0.0
  0
LINE
  5
16B
330
1B
100
AcDbEntity
 67
     1
  8
0
  6
Continuous
 62
     7
370
    25
100
AcDbLine
 10
-219.2
 20
42.5
 30
0.0
 11
-219.2
 21
44.0
 31
0.0
  0
LINE
  5
16C
330
1B
100
AcDbEntity
 67
     1
  8
0
  6
Continuous
 62
     7
370
    25
100
AcDbLine
 10
-219.2
 20
117.0
 30
0.0
 11
-219.2
 21
184.5
 31
0.0
  0
LINE
  5
16D
330
1B
100
AcDbEntity
 67
     1
  8
0
  6
Continuous
 62
     7
370
    25
100
AcDbLine
 10
-219.2
 20
184.5
 30
0.0
 11
217.8
 21
184.5
 31
0.0
  0
LINE
  5
16E
330
1B
100
AcDbEntity
 67
     1
  8
0
  6
Continuous
 62
     7
370
    25
100
AcDbLine
 10
217.8
 20
184.5
 30
0.0
 11
217.8
 21
117.0
 31
0.0
  0
LINE
  5
16F
330
1B
100
AcDbEntity
 67
     1
  8
0
  6
Continuous
 62
     7
370
    25
100
AcDbLine
 10
217.8
 20
44.0
 30
0.0
 11
217.8
 21
42.5
 31
0.0
  0
LINE
  5
170
330
1B
100
AcDbEntity
 67
     1
  8
0
  6
Continuous
 62
     7
370
    25
100
AcDbLine
 10
208.1
 20
403.9545252283
 30
0.0
 11
208.1
 21
493.9545252283
 31
0.0
  0
LINE
  5
171
330
1B
100
AcDbEntity
 67
     1
  8
0
  6
Continuous
 62
     7
370
    25
100
AcDbLine
 10
208.1
 20
493.9545252283
 30
0.0
 11
256.0
 21
493.9545252283
 31
0.0
  0
LINE
  5
172
330
1B
100
AcDbEntity
 67
     1
  8
0
  6
Continuous
 62
     7
370
    25
100
AcDbLine
 10
256.0
 20
403.9545252283
 30
0.0
 11
256.0
 21
510.0
 31
0.0
  0
LINE
  5
173
330
1B
100
AcDbEntity
 67
     1
  8
0
  6
Continuous
 62
     7
370
    25
100
AcDbLine
 10
256.0
 20
403.9545252283
 30
0.0
 11
208.1
 21
403.9545252283
 31
0.0
  0
LINE
  5
174
330
1B
100
AcDbEntity
 67
     1
  8
0
  6
Continuous
 62
     7
370
    25
100
AcDbLine
 10
223.1
 20
419.9545252283
 30
0.0
 11
239.1
 21
419.9545252283
 31
0.0
  0
LINE
  5
175
330
1B
100
AcDbEntity
 67
     1
  8
0
  6
Continuous
 62
     7
370
    25
100
AcDbLine
 10
223.1
 20
483.9545252283
 30
0.0
 11
239.1
 21
483.9545252283
 31
0.0
  0
LINE
  5
176
330
1B
100
AcDbEntity
 67
     1
  8
0
  6
Continuous
 62
     7
370
    25
100
AcDbLine
 10
239.1
 20
477.9545252283
 30
0.0
 11
223.1
 21
477.9545252283
 31
0.0
  0
LINE
  5
177
330
1B
100
AcDbEntity
 67
     1
  8
0
  6
Continuous
 62
     7
370
    25
100
AcDbLine
 10
228.1
 20
443.9545252283
 30
0.0
 11
228.1
 21
453.9545252283
 31
0.0
  0
LINE
  5
178
330
1B
100
AcDbEntity
 67
     1
  8
0
  6
Continuous
 62
     7
370
    25
100
AcDbLine
 10
239.1
 20
413.9545252283
 30
0.0
 11
223.1
 21
413.9545252283
 31
0.0
  0
LINE
  5
179
330
1B
100
AcDbEntity
 67
     1
  8
0
  6
Continuous
 62
     7
370
    25
100
AcDbLine
 10
234.1
 20
453.9545252283
 30
0.0
 11
234.1
 21
443.9545252283
 31
0.0
  0
LINE
  5
17A
330
1B
100
AcDbEntity
 67
     1
  8
0
  6
Continuous
 62
     7
370
    25
100
AcDbLine
 10
-231.25
 20
-9.5
 30
0.0
 11
-220.75
 21
-9.5
 31
0.0
  0
LINE
  5
17B
330
1B
100
AcDbEntity
 67
     1
  8
0
  6
Continuous
 62
     7
370
    25
100
AcDbLine
 10
228.5
 20
304.3
 30
0.0
 11
228.5
 21
288.3
 31
0.0
  0
LINE
  5
17C
330
1B
100
AcDbEntity
 67
     1
  8
0
  6
Continuous
 62
     7
370
    25
100
AcDbLine
 10
110.0
 20
288.3
 30
0.0
 11
228.5
 21
288.3
 31
0.0
  0
LINE
  5
17D
330
1B
100
AcDbEntity
 67
     1
  8
0
  6
Continuous
 62
     7
370
    25
100
AcDbLine
 10
110.0
 20
304.3
 30
0.0
 11
231.0
 21
304.3
 31
0.0
  0
LINE
  5
17E
330
1B
100
AcDbEntity
 67
     1
  8
0
  6
Continuous
 62
     7
370
    25
100
AcDbLine
 10
-228.5
 20
304.3
 30
0.0
 11
-228.5
 21
288.3
 31
0.0
  0
LINE
  5
17F
330
1B
100
AcDbEntity
 67
     1
  8
0
  6
Continuous
 62
     7
370
    25
100
AcDbLine
 10
-228.5
 20
288.3
 30
0.0
 11
-110.0
 21
288.3
 31
0.0
  0
LINE
  5
180
330
1B
100
AcDbEntity
 67
     1
  8
0
  6
Continuous
 62
     7
370
    25
100
AcDbLine
 10
-231.0
 20
304.3
 30
0.0
 11
-110.0
 21
304.3
 31
0.0
  0
LINE
  5
181
330
1B
100
AcDbEntity
 67
     1
  8
0
  6
Continuous
 62
     7
370
    25
100
AcDbLine
 10
-225.0
 20
304.3
 30
0.0
 11
-225.0
 21
373.8
 31
0.0
  0
LINE
  5
182
330
1B
100
AcDbEntity
 67
     1
  8
0
  6
Continuous
 62
     7
370
    25
100
AcDbLine
 10
225.0
 20
372.3
 30
0.0
 11
-225.0
 21
372.3
 31
0.0
  0
LINE
  5
183
330
1B
100
AcDbEntity
 67
     1
  8
0
  6
Continuous
 62
     7
370
    25
100
AcDbLine
 10
225.0
 20
304.3
 30
0.0
 11
225.0
 21
373.8
 31
0.0
  0
LINE
  5
184
330
1B
100
AcDbEntity
 67
     1
  8
0
  6
Continuous
 62
     7
370
    25
100
AcDbLine
 10
-279.2
 20
0.0
 30
0.0
 11
279.2
 21
0.0
 31
0.0
  0
LINE
  5
185
330
1B
100
AcDbEntity
 67
     1
  8
0
  6
Continuous
 62
     7
370
    25
100
AcDbLine
 10
261.0
 20
0.0
 30
0.0
 11
261.0
 21
600.0
 31
0.0
  0
LINE
  5
186
330
1B
100
AcDbEntity
 67
     1
  8
0
  6
Continuous
 62
     7
370
    25
100
AcDbLine
 10
261.0
 20
600.0
 30
0.0
 11
279.2
 21
600.0
 31
0.0
  0
LINE
  5
187
330
1B
100
AcDbEntity
 67
     1
  8
0
  6
Continuous
 62
     7
370
    25
100
AcDbLine
 10
279.2
 20
0.0
 30
0.0
 11
279.2
 21
600.0
 31
0.0
  0
LINE
  5
188
330
1B
100
AcDbEntity
 67
     1
  8
0
  6
Continuous
 62
     7
370
    25
100
AcDbLine
 10
256.0
 20
508.2
 30
0.0
 11
261.0
 21
508.2
 31
0.0
  0
LINE
  5
189
330
1B
100
AcDbEntity
 67
     1
  8
0
  6
Continuous
 62
     7
370
    25
100
AcDbLine
 10
261.0
 20
413.8
 30
0.0
 11
256.0
 21
413.8
 31
0.0
  0
LINE
  5
18A
330
1B
100
AcDbEntity
 67
     1
  8
0
  6
Continuous
 62
     7
370
    25
100
AcDbLine
 10
259.0
 20
508.2
 30
0.0
 11
259.0
 21
413.8
 31
0.0
  0
LINE
  5
18B
330
1B
100
AcDbEntity
 67
     1
  8
0
  6
Continuous
 62
     7
370
    25
100
AcDbLine
 10
257.8
 20
510.0
 30
0.0
 11
256.0
 21
510.0
 31
0.0
  0
LINE
  5
18C
330
1B
100
AcDbEntity
 67
     1
  8
0
  6
Continuous
 62
     7
370
    25
100
AcDbLine
 10
257.8
 20
510.0
 30
0.0
 11
257.8
 21
508.2
 31
0.0
  0
LINE
  5
18D
330
1B
100
AcDbEntity
 67
     1
  8
0
  6
Continuous
 62
     7
370
    25
100
AcDbLine
 10
257.8
 20
412.0
 30
0.0
 11
256.0
 21
412.0
 31
0.0
  0
LINE
  5
18E
330
1B
100
AcDbEntity
 67
     1
  8
0
  6
Continuous
 62
     7
370
    25
100
AcDbLine
 10
257.8
 20
413.8
 30
0.0
 11
257.8
 21
412.0
 31
0.0
  0
LINE
  5
18F
330
1B
100
AcDbEntity
 67
     1
  8
0
  6
Continuous
 62
     7
370
    25
100
AcDbLine
 10
-256.0
 20
413.8
 30
0.0
 11
-261.0
 21
413.8
 31
0.0
  0
LINE
  5
190
330
1B
100
AcDbEntity
 67
     1
  8
0
  6
Continuous
 62
     7
370
    25
100
AcDbLine
 10
-261.0
 20
508.2
 30
0.0
 11
-256.0
 21
508.2
 31
0.0
  0
LINE
  5
191
330
1B
100
AcDbEntity
 67
     1
  8
0
  6
Continuous
 62
     7
370
    25
100
AcDbLine
 10
-259.0
 20
413.8
 30
0.0
 11
-259.0
 21
508.2
 31
0.0
  0
LINE
  5
192
330
1B
100
AcDbEntity
 67
     1
  8
0
  6
Continuous
 62
     7
370
    25
100
AcDbLine
 10
-256.0
 20
510.0
 30
0.0
 11
-256.0
 21
403.9545252283
 31
0.0
  0
LINE
  5
193
330
1B
100
AcDbEntity
 67
     1
  8
0
  6
Continuous
 62
     7
370
    25
100
AcDbLine
 10
-257.8
 20
412.0
 30
0.0
 11
-256.0
 21
412.0
 31
0.0
  0
LINE
  5
194
330
1B
100
AcDbEntity
 67
     1
  8
0
  6
Continuous
 62
     7
370
    25
100
AcDbLine
 10
-257.8
 20
412.0
 30
0.0
 11
-257.8
 21
413.8
 31
0.0
  0
LINE
  5
195
330
1B
100
AcDbEntity
 67
     1
  8
0
  6
Continuous
 62
     7
370
    25
100
AcDbLine
 10
-257.8
 20
510.0
 30
0.0
 11
-256.0
 21
510.0
 31
0.0
  0
LINE
  5
196
330
1B
100
AcDbEntity
 67
     1
  8
0
  6
Continuous
 62
     7
370
    25
100
AcDbLine
 10
-257.8
 20
508.2
 30
0.0
 11
-257.8
 21
510.0
 31
0.0
  0
LINE
  5
197
330
1B
100
AcDbEntity
 67
     1
  8
0
  6
Continuous
 62
     7
370
    25
100
AcDbLine
 10
-78.0
 20
285.3
 30
0.0
 11
-78.0
 21
372.3
 31
0.0
  0
LINE
  5
198
330
1B
100
AcDbEntity
 67
     1
  8
0
  6
Continuous
 62
     7
370
    25
100
AcDbLine
 10
-110.0
 20
285.3
 30
0.0
 11
-110.0
 21
372.3
 31
0.0
  0
LINE
  5
199
330
1B
100
AcDbEntity
 67
     1
  8
0
  6
Continuous
 62
     7
370
    25
100
AcDbLine
 10
78.0
 20
285.3
 30
0.0
 11
78.0
 21
372.3
 31
0.0
  0
LINE
  5
19A
330
1B
100
AcDbEntity
 67
     1
  8
0
  6
Continuous
 62
     7
370
    25
100
AcDbLine
 10
110.0
 20
285.3
 30
0.0
 11
-110.0
 21
285.3
 31
0.0
  0
LINE
  5
19B
330
1B
100
AcDbEntity
 67
     1
  8
0
  6
Continuous
 62
     7
370
    25
100
AcDbLine
 10
110.0
 20
285.3
 30
0.0
 11
110.0
 21
372.3
 31
0.0
  0
LINE
  5
19C
330
1B
100
AcDbEntity
 67
     1
  8
0
  6
Continuous
 62
     7
370
    25
100
AcDbLine
 10
-261.0
 20
18.2
 30
0.0
 11
261.0
 21
18.2
 31
0.0
  0
LINE
  5
19D
330
1B
100
AcDbEntity
 67
     1
  8
0
  6
Continuous
 62
     7
370
    25
100
AcDbLine
 10
-250.7
 20
42.5
 30
0.0
 11
-250.7
 21
26.5
 31
0.0
  0
LINE
  5
19E
330
1B
100
AcDbEntity
 67
     1
  8
0
  6
Continuous
 62
     7
370
    25
100
AcDbLine
 10
249.3
 20
42.5
 30
0.0
 11
249.3
 21
26.5
 31
0.0
  0
LINE
  5
19F
330
1B
100
AcDbEntity
 67
     1
  8
0
  6
Continuous
 62
     7
370
    25
100
AcDbLine
 10
-250.7
 20
26.5
 30
0.0
 11
249.3
 21
26.5
 31
0.0
  0
LINE
  5
1A0
330
1B
100
AcDbEntity
 67
     1
  8
0
  6
Continuous
 62
     7
370
    25
100
AcDbLine
 10
-261.0
 20
600.0
 30
0.0
 11
-279.2
 21
600.0
 31
0.0
  0
LINE
  5
1A1
330
1B
100
AcDbEntity
 67
     1
  8
0
  6
Continuous
 62
     7
370
    25
100
AcDbLine
 10
-279.2
 20
0.0
 30
0.0
 11
-279.2
 21
600.0
 31
0.0
  0
LINE
  5
1A2
330
1B
100
AcDbEntity
 67
     1
  8
0
  6
Continuous
 62
     7
370
    25
100
AcDbLine
 10
-261.0
 20
0.0
 30
0.0
 11
-261.0
 21
600.0
 31
0.0
  0
LINE
  5
1A3
330
1B
100
AcDbEntity
 67
     1
  8
0
  6
Continuous
 62
     7
370
    25
100
AcDbLine
 10
261.0
 20
595.3
 30
0.0
 11
-261.0
 21
595.3
 31
0.0
  0
LINE
  5
1A4
330
1B
100
AcDbEntity
 67
     1
  8
0
  6
Continuous
 62
     7
370
    25
100
AcDbLine
 10
-208.1
 20
493.9545252283
 30
0.0
 11
-208.1
 21
403.9545252283
 31
0.0
  0
LINE
  5
1A5
330
1B
100
AcDbEntity
 67
     1
  8
0
  6
Continuous
 62
     7
370
    25
100
AcDbLine
 10
-208.1
 20
403.9545252283
 30
0.0
 11
-256.0
 21
403.9545252283
 31
0.0
  0
LINE
  5
1A6
330
1B
100
AcDbEntity
 67
     1
  8
0
  6
Continuous
 62
     7
370
    25
100
AcDbLine
 10
-256.0
 20
493.9545252283
 30
0.0
 11
-208.1
 21
493.9545252283
 31
0.0
  0
LINE
  5
1A7
330
1B
100
AcDbEntity
 67
     1
  8
0
  6
Continuous
 62
     7
370
    25
100
AcDbLine
 10
-223.1
 20
477.9545252283
 30
0.0
 11
-239.1
 21
477.9545252283
 31
0.0
  0
LINE
  5
1A8
330
1B
100
AcDbEntity
 67
     1
  8
0
  6
Continuous
 62
     7
370
    25
100
AcDbLine
 10
-228.1
 20
453.9545252283
 30
0.0
 11
-228.1
 21
443.9545252283
 31
0.0
  0
LINE
  5
1A9
330
1B
100
AcDbEntity
 67
     1
  8
0
  6
Continuous
 62
     7
370
    25
100
AcDbLine
 10
-234.1
 20
443.9545252283
 30
0.0
 11
-234.1
 21
453.9545252283
 31
0.0
  0
LINE
  5
1AA
330
1B
100
AcDbEntity
 67
     1
  8
0
  6
Continuous
 62
     7
370
    25
100
AcDbLine
 10
-223.1
 20
413.9545252283
 30
0.0
 11
-239.1
 21
413.9545252283
 31
0.0
  0
LINE
  5
1AB
330
1B
100
AcDbEntity
 67
     1
  8
0
  6
Continuous
 62
     7
370
    25
100
AcDbLine
 10
-239.1
 20
419.9545252283
 30
0.0
 11
-223.1
 21
419.9545252283
 31
0.0
  0
LINE
  5
1AC
330
1B
100
AcDbEntity
 67
     1
  8
0
  6
Continuous
 62
     7
370
    25
100
AcDbLine
 10
-239.1
 20
483.9545252283
 30
0.0
 11
-223.1
 21
483.9545252283
 31
0.0
  0
LINE
  5
1AD
330
1B
100
AcDbEntity
 67
     1
  8
0
  6
Continuous
 62
     7
370
    25
100
AcDbLine
 10
220.75
 20
-9.5
 30
0.0
 11
231.25
 21
-9.5
 31
0.0
  0
LINE
  5
1AE
330
1B
100
AcDbEntity
 67
     1
  8
0
  6
Continuous
 62
     7
370
    25
100
AcDbLine
 10
-219.2999687854
 20
44.0
 30
0.0
 11
-200.2999687854
 21
44.0
 31
0.0
  0
LINE
  5
1AF
330
1B
100
AcDbEntity
 67
     1
  8
0
  6
Continuous
 62
     7
370
    25
100
AcDbLine
 10
-200.2999687854
 20
117.0
 30
0.0
 11
-200.2999687854
 21
44.0
 31
0.0
  0
LINE
  5
1B0
330
1B
100
AcDbEntity
 67
     1
  8
0
  6
Continuous
 62
     7
370
    25
100
AcDbLine
 10
-219.2999687854
 20
194.0
 30
0.0
 11
-219.2999687854
 21
44.0
 31
0.0
  0
LINE
  5
1B1
330
1B
100
AcDbEntity
 67
     1
  8
0
  6
Continuous
 62
     7
370
    25
100
AcDbLine
 10
-200.2999687854
 20
117.0
 30
0.0
 11
-219.2999687854
 21
117.0
 31
0.0
  0
LINE
  5
1B2
330
1B
100
AcDbEntity
 67
     1
  8
0
  6
Continuous
 62
     7
370
    25
100
AcDbLine
 10
-251.7
 20
42.5
 30
0.0
 11
-251.7
 21
28.0
 31
0.0
  0
LINE
  5
1B3
330
1B
100
AcDbEntity
 67
     1
  8
0
  6
Continuous
 62
     7
370
    25
100
AcDbLine
 10
-251.7
 20
28.0
 30
0.0
 11
-253.2
 21
28.0
 31
0.0
  0
LINE
  5
1B4
330
1B
100
AcDbEntity
 67
     1
  8
0
  6
Continuous
 62
     7
370
    25
100
AcDbLine
 10
-253.2
 20
28.0
 30
0.0
 11
-253.2
 21
111.0
 31
0.0
  0
LINE
  5
1B5
330
1B
100
AcDbEntity
 67
     1
  8
0
  6
Continuous
 62
     7
370
    25
100
AcDbLine
 10
-253.2
 20
111.0
 30
0.0
 11
-246.2
 21
111.0
 31
0.0
  0
LINE
  5
1B6
330
1B
100
AcDbEntity
 67
     1
  8
0
  6
Continuous
 62
     7
370
    25
100
AcDbLine
 10
-246.2
 20
194.0
 30
0.0
 11
-246.2
 21
111.0
 31
0.0
  0
LINE
  5
1B7
330
1B
100
AcDbEntity
 67
     1
  8
0
  6
Continuous
 62
     7
370
    25
100
AcDbLine
 10
-246.2
 20
194.0
 30
0.0
 11
-219.2999687854
 21
194.0
 31
0.0
  0
LINE
  5
1B8
330
1B
100
AcDbEntity
 67
     1
  8
0
  6
Continuous
 62
     7
370
    25
100
AcDbLine
 10
217.8999687854
 20
44.0
 30
0.0
 11
198.8999687854
 21
44.0
 31
0.0
  0
LINE
  5
1B9
330
1B
100
AcDbEntity
 67
     1
  8
0
  6
Continuous
 62
     7
370
    25
100
AcDbLine
 10
217.8999687854
 20
194.0
 30
0.0
 11
217.8999687854
 21
44.0
 31
0.0
  0
LINE
  5
1BA
330
1B
100
AcDbEntity
 67
     1
  8
0
  6
Continuous
 62
     7
370
    25
100
AcDbLine
 10
198.8999687854
 20
117.0
 30
0.0
 11
217.8999687854
 21
117.0
 31
0.0
  0
LINE
  5
1BB
330
1B
100
AcDbEntity
 67
     1
  8
0
  6
Continuous
 62
     7
370
    25
100
AcDbLine
 10
198.8999687854
 20
117.0
 30
0.0
 11
198.8999687854
 21
44.0
 31
0.0
  0
LINE
  5
1BC
330
1B
100
AcDbEntity
 67
     1
  8
0
  6
Continuous
 62
     7
370
    25
100
AcDbLine
 10
251.8
 20
111.0
 30
0.0
 11
244.8
 21
111.0
 31
0.0
  0
LINE
  5
1BD
330
1B
100
AcDbEntity
 67
     1
  8
0
  6
Continuous
 62
     7
370
    25
100
AcDbLine
 10
251.8
 20
28.0
 30
0.0
 11
251.8
 21
111.0
 31
0.0
  0
LINE
  5
1BE
330
1B
100
AcDbEntity
 67
     1
  8
0
  6
Continuous
 62
     7
370
    25
100
AcDbLine
 10
250.3
 20
28.0
 30
0.0
 11
251.8
 21
28.0
 31
0.0
  0
LINE
  5
1BF
330
1B
100
AcDbEntity
 67
     1
  8
0
  6
Continuous
 62
     7
370
    25
100
AcDbLine
 10
250.3
 20
42.5
 30
0.0
 11
250.3
 21
28.0
 31
0.0
  0
LINE
  5
1C0
330
1B
100
AcDbEntity
 67
     1
  8
0
  6
Continuous
 62
     7
370
    25
100
AcDbLine
 10
244.8
 20
194.0
 30
0.0
 11
244.8
 21
111.0
 31
0.0
  0
LINE
  5
1C1
330
1B
100
AcDbEntity
 67
     1
  8
0
  6
Continuous
 62
     7
370
    25
100
AcDbLine
 10
244.8
 20
194.0
 30
0.0
 11
217.8999687854
 21
194.0
 31
0.0
  0
LINE
  5
1C2
330
1B
100
AcDbEntity
 67
     1
  8
0
  6
Continuous
 62
     7
370
    25
100
AcDbLine
 10
208.1
 20
484.0
 30
0.0
 11
-208.1
 21
484.0
 31
0.0
  0
LINE
  5
1C3
330
1B
100
AcDbEntity
 67
     1
  8
0
  6
Continuous
 62
     7
370
    25
100
AcDbLine
 10
-261.0
 20
544.0
 30
0.0
 11
261.0
 21
544.0
 31
0.0
  0
LINE
  5
1C4
330
1B
100
AcDbEntity
 67
     1
  8
0
  6
Continuous
 62
     7
370
    25
100
AcDbLine
 10
-260.0
 20
287.8
 30
0.0
 11
-231.0
 21
287.8
 31
0.0
  0
LINE
  5
1C5
330
1B
100
AcDbEntity
 67
     1
  8
0
  6
Continuous
 62
     7
370
    25
100
AcDbLine
 10
-231.0
 20
287.8
 30
0.0
 11
-231.0
 21
304.3
 31
0.0
  0
LINE
  5
1C6
330
1B
100
AcDbEntity
 67
     1
  8
0
  6
Continuous
 62
     7
370
    25
100
AcDbLine
 10
-260.0
 20
366.8603485773
 30
0.0
 11
-260.0
 21
287.8
 31
0.0
  0
LINE
  5
1C7
330
1B
100
AcDbEntity
 67
     1
  8
0
  6
Continuous
 62
     7
370
    25
100
AcDbLine
 10
-225.0
 20
373.8
 30
0.0
 11
-253.0603485773
 21
373.8
 31
0.0
  0
LINE
  5
1C8
330
1B
100
AcDbEntity
 67
     1
  8
0
  6
Continuous
 62
     7
370
    25
100
AcDbLine
 10
260.0
 20
366.8832161278
 30
0.0
 11
260.0
 21
287.8
 31
0.0
  0
LINE
  5
1C9
330
1B
100
AcDbEntity
 67
     1
  8
0
  6
Continuous
 62
     7
370
    25
100
AcDbLine
 10
260.0
 20
287.8
 30
0.0
 11
231.0
 21
287.8
 31
0.0
  0
LINE
  5
1CA
330
1B
100
AcDbEntity
 67
     1
  8
0
  6
Continuous
 62
     7
370
    25
100
AcDbLine
 10
231.0
 20
287.8
 30
0.0
 11
231.0
 21
304.3
 31
0.0
  0
LINE
  5
1CB
330
1B
100
AcDbEntity
 67
     1
  8
0
  6
Continuous
 62
     7
370
    25
100
AcDbLine
 10
225.0
 20
373.8
 30
0.0
 11
253.0832161278
 21
373.8
 31
0.0
  0
LINE
  5
1CC
330
1B
100
AcDbEntity
 67
     1
  8
0
  6
Continuous
 62
     7
370
    25
100
AcDbLine
 10
-261.0
 20
268.2
 30
0.0
 11
261.0
 21
268.2
 31
0.0
  0
LINE
  5
1CD
330
1B
100
AcDbEntity
 67
     1
  8
0
  6
Continuous
 62
     7
370
    25
100
AcDbLine
 10
261.0
 20
208.2
 30
0.0
 11
-261.0
 21
208.2
 31
0.0
  0
ARC
  5
1CE
330
1B
100
AcDbEntity
 67
     1
  8
0
  6
Continuous
 62
     7
370
    25
100
AcDbCircle
 10
231.1
 20
453.9545252283
 30
0.0
 40
3.0
100
AcDbArc
 50
0.0
 51
180.0
  0
ARC
  5
1CF
330
1B
100
AcDbEntity
 67
     1
  8
0
  6
Continuous
 62
     7
370
    25
100
AcDbCircle
 10
223.1
 20
480.9545252283
 30
0.0
 40
3.000000000000057
100
AcDbArc
 50
90.0
 51
270.0
  0
ARC
  5
1D0
330
1B
100
AcDbEntity
 67
     1
  8
0
  6
Continuous
 62
     7
370
    25
100
AcDbCircle
 10
239.1
 20
480.9545252283
 30
0.0
 40
3.0
100
AcDbArc
 50
270.0
 51
90.0
  0
ARC
  5
1D1
330
1B
100
AcDbEntity
 67
     1
  8
0
  6
Continuous
 62
     7
370
    25
100
AcDbCircle
 10
231.1
 20
443.9545252283
 30
0.0
 40
3.0
100
AcDbArc
 50
180.0
 51
0.0
  0
ARC
  5
1D2
330
1B
100
AcDbEntity
 67
     1
  8
0
  6
Continuous
 62
     7
370
    25
100
AcDbCircle
 10
223.1
 20
416.9545252283
 30
0.0
 40
3.000000000000057
100
AcDbArc
 50
90.0
 51
270.0
  0
ARC
  5
1D3
330
1B
100
AcDbEntity
 67
     1
  8
0
  6
Continuous
 62
     7
370
    25
100
AcDbCircle
 10
239.1
 20
416.9545252283
 30
0.0
 40
3.0
100
AcDbArc
 50
270.0
 51
90.0
  0
ARC
  5
1D4
330
1B
100
AcDbEntity
 67
     1
  8
0
  6
Continuous
 62
     7
370
    25
100
AcDbCircle
 10
-231.1
 20
453.9545252283
 30
0.0
 40
3.0
100
AcDbArc
 50
0.0
 51
180.0
  0
ARC
  5
1D5
330
1B
100
AcDbEntity
 67
     1
  8
0
  6
Continuous
 62
     7
370
    25
100
AcDbCircle
 10
-231.1
 20
443.9545252283
 30
0.0
 40
3.0
100
AcDbArc
 50
180.0
 51
0.0
  0
ARC
  5
1D6
330
1B
100
AcDbEntity
 67
     1
  8
0
  6
Continuous
 62
     7
370
    25
100
AcDbCircle
 10
-223.1
 20
416.9545252283
 30
0.0
 40
3.000000000000057
100
AcDbArc
 50
270.0
 51
90.0
  0
ARC
  5
1D7
330
1B
100
AcDbEntity
 67
     1
  8
0
  6
Continuous
 62
     7
370
    25
100
AcDbCircle
 10
-239.1
 20
416.9545252283
 30
0.0
 40
3.000000000000057
100
AcDbArc
 50
90.0
 51
270.0
  0
ARC
  5
1D8
330
1B
100
AcDbEntity
 67
     1
  8
0
  6
Continuous
 62
     7
370
    25
100
AcDbCircle
 10
-239.1
 20
480.9545252283
 30
0.0
 40
3.000000000000057
100
AcDbArc
 50
90.0
 51
270.0
  0
ARC
  5
1D9
330
1B
100
AcDbEntity
 67
     1
  8
0
  6
Continuous
 62
     7
370
    25
100
AcDbCircle
 10
-223.1
 20
480.9545252283
 30
0.0
 40
3.000000000000057
100
AcDbArc
 50
270.0
 51
90.0
  0
ARC
  5
1DA
330
1B
100
AcDbEntity
 67
     1
  8
0
  6
Continuous
 62
     7
370
    25
100
AcDbCircle
 10
-220.2
 20
44.5
 30
0.0
 40
2.000000000000064
100
AcDbArc
 50
270.0
 51
345.5224878141
  0
ARC
  5
1DB
330
1B
100
AcDbEntity
 67
     1
  8
0
  6
Continuous
 62
     7
370
    25
100
AcDbCircle
 10
-248.2
 20
199.5
 30
0.0
 40
8.000000000000082
100
AcDbArc
 50
316.5674634422
 51
284.4775121859
  0
ARC
  5
1DC
330
1B
100
AcDbEntity
 67
     1
  8
0
  6
Continuous
 62
     7
370
    25
100
AcDbCircle
 10
218.8
 20
44.5
 30
0.0
 40
1.99999999999995
100
AcDbArc
 50
194.4775121859
 51
270.0
  0
ARC
  5
1DD
330
1B
100
AcDbEntity
 67
     1
  8
0
  6
Continuous
 62
     7
370
    25
100
AcDbCircle
 10
246.8
 20
199.5
 30
0.0
 40
7.999999999999937
100
AcDbArc
 50
255.5224878141
 51
223.4325365578
  0
ARC
  5
1DE
330
1B
100
AcDbEntity
 67
     1
  8
0
  6
Continuous
 62
     7
370
    25
100
AcDbCircle
 10
-253.0603485773
 20
366.8603485773
 30
0.0
 40
6.939651422715428
100
AcDbArc
 50
90.0
 51
180.0
  0
ARC
  5
1DF
330
1B
100
AcDbEntity
 67
     1
  8
0
  6
Continuous
 62
     7
370
    25
100
AcDbCircle
 10
253.0832161278
 20
366.8832161278
 30
0.0
 40
6.916783872248317
100
AcDbArc
 50
0.0
 51
90.0
  0
VIEWPORT
  5
487
330
1B
100
AcDbEntity
 67
     1
  8
0
100
AcDbViewport
 10
0.0
 20
0.0
 30
0.0
 40
205.6
 41
156.0
 68
     1
 69
     1
 12
0.0
 22
295.25
 13
0.0
 23
0.0
 14
10.0
 24
10.0
 15
10.0
 25
10.0
 16
0.0
 26
0.0
 36
1.0
 17
0.0
 27
0.0
 37
0.0
 42
50.0
 43
0.0
 44
0.0
 45
621.69
 50
0.0
 51
0.0
 72
   100
 90
   557152
  1

281
     0
 71
     1
 74
     0
110
0.0
120
0.0
130
0.0
111
1.0
121
0.0
131
0.0
112
0.0
122
1.0
132
0.0
 79
     0
146
0.0
  0
ENDSEC
  0
SECTION
  2
OBJECTS
  0
DICTIONARY
  5
C
330
0
100
AcDbDictionary
281
     1
  3
ACAD_GROUP
350
D
  3
ACAD_LAYOUT
350
1A
  3
ACAD_MLINESTYLE
350
17
  3
ACAD_PLOTSETTINGS
350
19
  3
ACAD_PLOTSTYLENAME
350
E
  3
ACAD_SCALELIST
350
47
  0
DICTIONARY
  5
D
102
{ACAD_REACTORS
330
C
102
}
330
C
100
AcDbDictionary
281
     1
  0
DICTIONARY
  5
1A
102
{ACAD_REACTORS
330
C
102
}
330
C
100
AcDbDictionary
281
     1
  3
_Back
350
1E
  3
_Isometric
350
2F6
  3
_Left
350
26
  3
_Top
350
212
  3
Model
350
22
  0
DICTIONARY
  5
17
102
{ACAD_REACTORS
330
C
102
}
330
C
100
AcDbDictionary
281
     1
  3
Standard
350
18
  0
DICTIONARY
  5
19
102
{ACAD_REACTORS
330
C
102
}
330
C
100
AcDbDictionary
281
     1
  0
ACDBDICTIONARYWDFLT
  5
E
102
{ACAD_REACTORS
330
C
102
}
330
C
100
AcDbDictionary
281
     1
  3
Normal
350
F
100
AcDbDictionaryWithDefault
340
F
  0
DICTIONARY
  5
47
102
{ACAD_REACTORS
330
C
102
}
330
C
100
AcDbDictionary
281
     1
  3
A0
350
48
  3
A1
350
49
  3
A2
350
4A
  3
A3
350
4B
  3
A4
350
4C
  3
A5
350
4D
  3
A6
350
4E
  3
A7
350
4F
  3
A8
350
50
  3
A9
350
51
  3
B0
350
52
  3
B1
350
53
  3
B2
350
54
  3
B3
350
55
  3
B4
350
56
  3
B5
350
57
  3
B6
350
58
  3
B7
350
59
  3
B8
350
5A
  3
B9
350
5B
  3
C0
350
5C
  3
C1
350
5D
  3
C2
350
5E
  3
C3
350
5F
  3
C4
350
60
  3
C5
350
61
  3
C6
350
62
  3
C7
350
63
  3
C8
350
64
  3
C9
350
65
  3
D0
350
66
  3
D1
350
67
  3
D2
350
68
  0
LAYOUT
  5
1E
102
{ACAD_REACTORS
330
1A
102
}
330
1A
100
AcDbPlotSettings
  1

  2
none_device
  4
ISO_A4_(210.00_x_297.00_MM)
  6

 40
7.5
 41
20.0
 42
7.5
 43
20.0
 44
210.0
 45
297.0
 46
0.0
 47
0.0
 48
0.0
 49
0.0
140
0.0
141
0.0
142
1.0
143
3.1256410256
 70
   688
 72
     1
 73
     1
 74
     1
  7

 75
     0
147
0.3199343724
148
279.2
149
9.5
100
AcDbLayout
  1
_Back
 70
     1
 71
     1
 10
-341.7128205128
 20
-32.9423076923
 11
586.6025641026
 21
623.4423076923
 12
0.0
 22
0.0
 32
0.0
 14
-279.2
 24
-9.5
 34
0.0
 15
279.2
 25
600.0
 35
0.0
146
0.0
 13
0.0
 23
0.0
 33
0.0
 16
1.0
 26
0.0
 36
0.0
 17
0.0
 27
1.0
 37
0.0
 76
     0
330
1B
331
487
  0
LAYOUT
  5
2F6
102
{ACAD_REACTORS
330
1A
102
}
330
1A
100
AcDbPlotSettings
  1

  2
none_device
  4
ISO_A4_(210.00_x_297.00_MM)
  6

 40
7.5
 41
20.0
 42
7.5
 43
20.0
 44
210.0
 45
297.0
 46
0.0
 47
0.0
 48
0.0
 49
0.0
140
0.0
141
0.0
142
1.0
143
3.1256410256
 70
   688
 72
     1
 73
     1
 74
     1
  7

 75
     0
147
0.3199343724
148
279.2
149
9.5
100
AcDbLayout
  1
_Isometric
 70
     1
 71
     4
 10
0.0
 20
0.0
 11
0.0
 21
0.0
 12
0.0
 22
0.0
 32
0.0
 14
0.0
 24
0.0
 34
0.0
 15
0.0
 25
0.0
 35
0.0
146
0.0
 13
0.0
 23
0.0
 33
0.0
 16
1.0
 26
0.0
 36
0.0
 17
0.0
 27
1.0
 37
0.0
 76
     0
330
2F5
331
48D
  0
LAYOUT
  5
26
102
{ACAD_REACTORS
330
1A
102
}
330
1A
100
AcDbPlotSettings
  1

  2
none_device
  4
ISO_A4_(210.00_x_297.00_MM)
  6

 40
7.5
 41
20.0
 42
7.5
 43
20.0
 44
210.0
 45
297.0
 46
0.0
 47
0.0
 48
0.0
 49
0.0
140
0.0
141
0.0
142
1.0
143
3.1256410256
 70
   688
 72
     1
 73
     1
 74
     1
  7

 75
     0
147
0.3199343724
148
279.2
149
9.5
100
AcDbLayout
  1
_Left
 70
     1
 71
     2
 10
0.0
 20
0.0
 11
0.0
 21
0.0
 12
0.0
 22
0.0
 32
0.0
 14
0.0
 24
0.0
 34
0.0
 15
0.0
 25
0.0
 35
0.0
146
0.0
 13
0.0
 23
0.0
 33
0.0
 16
1.0
 26
0.0
 36
0.0
 17
0.0
 27
1.0
 37
0.0
 76
     0
330
23
331
489
  0
LAYOUT
  5
212
102
{ACAD_REACTORS
330
1A
102
}
330
1A
100
AcDbPlotSettings
  1

  2
none_device
  4
ISO_A4_(210.00_x_297.00_MM)
  6

 40
7.5
 41
20.0
 42
7.5
 43
20.0
 44
210.0
 45
297.0
 46
0.0
 47
0.0
 48
0.0
 49
0.0
140
0.0
141
0.0
142
1.0
143
3.1256410256
 70
   688
 72
     1
 73
     1
 74
     1
  7

 75
     0
147
0.3199343724
148
279.2
149
9.5
100
AcDbLayout
  1
_Top
 70
     1
 71
     3
 10
0.0
 20
0.0
 11
0.0
 21
0.0
 12
0.0
 22
0.0
 32
0.0
 14
0.0
 24
0.0
 34
0.0
 15
0.0
 25
0.0
 35
0.0
146
0.0
 13
0.0
 23
0.0
 33
0.0
 16
1.0
 26
0.0
 36
0.0
 17
0.0
 27
1.0
 37
0.0
 76
     0
330
211
331
48B
  0
LAYOUT
  5
22
102
{ACAD_REACTORS
330
1A
102
}
330
1A
100
AcDbPlotSettings
  1

  2
none_device
  4
ANSI_A_(11.00_x_8.50_Inches)
  6

 40
6.35
 41
19.05
 42
6.35000508
 43
19.05000254
 44
279.4
 45
215.9
 46
133.34999746
 47
-14.6390172667
 48
0.0
 49
0.0
140
0.0
141
0.0
142
0.0138063987
143
1.0
 70
  1696
 72
     0
 73
     0
 74
     0
  7

 75
     0
147
0.0179189148
148
-1300.4909072572
149
0.0
100
AcDbLayout
  1
Model
 70
     1
 71
     0
 10
0.0
 20
0.0
 11
420.0
 21
297.0
 12
0.0
 22
0.0
 32
0.0
 14
-279.2
 24
-9.5
 34
0.0
 15
279.2
 25
600.0
 35
0.0
146
0.0
 13
0.0
 23
0.0
 33
0.0
 16
1.0
 26
0.0
 36
0.0
 17
0.0
 27
1.0
 37
0.0
 76
     0
330
1F
331
29
  0
MLINESTYLE
  5
18
102
{ACAD_REACTORS
330
17
102
}
330
17
100
AcDbMlineStyle
  2
Standard
 70
     0
  3

 62
   256
 51
90.0
 52
90.0
 71
     2
 49
0.5
 62
   256
  6
BYLAYER
 49
-0.5
 62
   256
  6
BYLAYER
  0
ACDBPLACEHOLDER
  5
F
102
{ACAD_REACTORS
330
E
102
}
330
E
  0
SCALE
  5
48
102
{ACAD_REACTORS
330
47
102
}
330
47
100
AcDbScale
 70
     0
300
1:1
140
1.0
141
1.0
290
     1
  0
SCALE
  5
49
102
{ACAD_REACTORS
330
47
102
}
330
47
100
AcDbScale
 70
     0
300
1:2
140
1.0
141
2.0
290
     0
  0
SCALE
  5
4A
102
{ACAD_REACTORS
330
47
102
}
330
47
100
AcDbScale
 70
     0
300
1:4
140
1.0
141
4.0
290
     0
  0
SCALE
  5
4B
102
{ACAD_REACTORS
330
47
102
}
330
47
100
AcDbScale
 70
     0
300
1:5
140
1.0
141
5.0
290
     0
  0
SCALE
  5
4C
102
{ACAD_REACTORS
330
47
102
}
330
47
100
AcDbScale
 70
     0
300
1:8
140
1.0
141
8.0
290
     0
  0
SCALE
  5
4D
102
{ACAD_REACTORS
330
47
102
}
330
47
100
AcDbScale
 70
     0
300
1:10
140
1.0
141
10.0
290
     0
  0
SCALE
  5
4E
102
{ACAD_REACTORS
330
47
102
}
330
47
100
AcDbScale
 70
     0
300
1:16
140
1.0
141
16.0
290
     0
  0
SCALE
  5
4F
102
{ACAD_REACTORS
330
47
102
}
330
47
100
AcDbScale
 70
     0
300
1:20
140
1.0
141
20.0
290
     0
  0
SCALE
  5
50
102
{ACAD_REACTORS
330
47
102
}
330
47
100
AcDbScale
 70
     0
300
1:30
140
1.0
141
30.0
290
     0
  0
SCALE
  5
51
102
{ACAD_REACTORS
330
47
102
}
330
47
100
AcDbScale
 70
     0
300
1:40
140
1.0
141
40.0
290
     0
  0
SCALE
  5
52
102
{ACAD_REACTORS
330
47
102
}
330
47
100
AcDbScale
 70
     0
300
1:50
140
1.0
141
50.0
290
     0
  0
SCALE
  5
53
102
{ACAD_REACTORS
330
47
102
}
330
47
100
AcDbScale
 70
     0
300
1:100
140
1.0
141
100.0
290
     0
  0
SCALE
  5
54
102
{ACAD_REACTORS
330
47
102
}
330
47
100
AcDbScale
 70
     0
300
2:1
140
2.0
141
1.0
290
     0
  0
SCALE
  5
55
102
{ACAD_REACTORS
330
47
102
}
330
47
100
AcDbScale
 70
     0
300
4:1
140
4.0
141
1.0
290
     0
  0
SCALE
  5
56
102
{ACAD_REACTORS
330
47
102
}
330
47
100
AcDbScale
 70
     0
300
8:1
140
8.0
141
1.0
290
     0
  0
SCALE
  5
57
102
{ACAD_REACTORS
330
47
102
}
330
47
100
AcDbScale
 70
     0
300
10:1
140
10.0
141
1.0
290
     0
  0
SCALE
  5
58
102
{ACAD_REACTORS
330
47
102
}
330
47
100
AcDbScale
 70
     0
300
100:1
140
100.0
141
1.0
290
     0
  0
SCALE
  5
59
102
{ACAD_REACTORS
330
47
102
}
330
47
100
AcDbScale
 70
     0
300
1/128" = 1'-0"
140
0.0078125
141
12.0
290
     0
  0
SCALE
  5
5A
102
{ACAD_REACTORS
330
47
102
}
330
47
100
AcDbScale
 70
     0
300
1/64" = 1'-0"
140
0.015625
141
12.0
290
     0
  0
SCALE
  5
5B
102
{ACAD_REACTORS
330
47
102
}
330
47
100
AcDbScale
 70
     0
300
1/32" = 1'-0"
140
0.03125
141
12.0
290
     0
  0
SCALE
  5
5C
102
{ACAD_REACTORS
330
47
102
}
330
47
100
AcDbScale
 70
     0
300
1/16" = 1'-0"
140
0.0625
141
12.0
290
     0
  0
SCALE
  5
5D
102
{ACAD_REACTORS
330
47
102
}
330
47
100
AcDbScale
 70
     0
300
3/32" = 1'-0"
140
0.09375
141
12.0
290
     0
  0
SCALE
  5
5E
102
{ACAD_REACTORS
330
47
102
}
330
47
100
AcDbScale
 70
     0
300
1/8" = 1'-0"
140
0.125
141
12.0
290
     0
  0
SCALE
  5
5F
102
{ACAD_REACTORS
330
47
102
}
330
47
100
AcDbScale
 70
     0
300
3/16" = 1'-0"
140
0.1875
141
12.0
290
     0
  0
SCALE
  5
60
102
{ACAD_REACTORS
330
47
102
}
330
47
100
AcDbScale
 70
     0
300
1/4" = 1'-0"
140
0.25
141
12.0
290
     0
  0
SCALE
  5
61
102
{ACAD_REACTORS
330
47
102
}
330
47
100
AcDbScale
 70
     0
300
3/8" = 1'-0"
140
0.375
141
12.0
290
     0
  0
SCALE
  5
62
102
{ACAD_REACTORS
330
47
102
}
330
47
100
AcDbScale
 70
     0
300
1/2" = 1'-0"
140
0.5
141
12.0
290
     0
  0
SCALE
  5
63
102
{ACAD_REACTORS
330
47
102
}
330
47
100
AcDbScale
 70
     0
300
3/4" = 1'-0"
140
0.75
141
12.0
290
     0
  0
SCALE
  5
64
102
{ACAD_REACTORS
330
47
102
}
330
47
100
AcDbScale
 70
     0
300
1" = 1'-0"
140
1.0
141
12.0
290
     0
  0
SCALE
  5
65
102
{ACAD_REACTORS
330
47
102
}
330
47
100
AcDbScale
 70
     0
300
1-1/2" = 1'-0"
140
1.5
141
12.0
290
     0
  0
SCALE
  5
66
102
{ACAD_REACTORS
330
47
102
}
330
47
100
AcDbScale
 70
     0
300
3" = 1'-0"
140
3.0
141
12.0
290
     0
  0
SCALE
  5
67
102
{ACAD_REACTORS
330
47
102
}
330
47
100
AcDbScale
 70
     0
300
6" = 1'-0"
140
6.0
141
12.0
290
     0
  0
SCALE
  5
68
102
{ACAD_REACTORS
330
47
102
}
330
47
100
AcDbScale
 70
     0
300
1'-0" = 1'-0"
140
12.0
141
12.0
290
     0
  0
ENDSEC
  0
EOF
